PrimaNota.ru - самый крупный в мире бесплатный архив песенных текстов, аккордов, табулатур и нот


Weezer - Superfriend - таба, видео

Регистрация Запомнить меня
Войти через:  Facebook Google Twitter Vk Yandex Mail.ru

Weezer - Superfriend - таба, видео

Печатать
Просмотров: 133
-------------------------------------------------------------------------------
			     Superfriend - Weezer
-------------------------------------------------------------------------------

Tabbed by: cjpm105

Tuning: Guitar 1 - Standard, half step down.
        Guitar 2 - Standard, half step down.

Key
\  slide up
/  slide down
~  sustain
b  bend
r  release
() ghost note
x  muted note


The asterisk between Guitar 1 and Guitar 2 means they're played simultaneously, which is throughout 
most of the song. There is a second guitar part in the outro, but it's difficult to hear/tab. 


Intro
eb|-------------------------------------------------------------------------------------------------|
Bb|----10----10----10----10----12----12----12----12-----9-----9-----9-----9----10----10----10----10-|
Gb|-------------------------------------------------------------------------------------------------|
Db|--7-----7-----7-----7-----9-----9-----9-----9-----6-----6-----6-----6-----7-----7-----7-----7----|
Ab|-------------------------------------------------------------------------------------------------|
Eb|-------------------------------------------------------------------------------------------------|
*****************************************************************************************************
eb|--12------------------9---9------------------------12-------------------------------9------------|
Bb|--------9-10------10-----------12--12~-------------------9-10-------10--12----12-------10~-------|
Gb|-------------------------------------------------------------------------------------------------|
Db|-------------------------------------------------------------------------------------------------|
Ab|-------------------------------------------------------------------------------------------------|
Eb|-------------------------------------------------------------------------------------------------|

eb|-------------------------------------------------------------------------------------------------|
Bb|----10----10----10----10----12----12----12---12----12----12----12----12----15----15----15----15--|
Gb|-------------------------------------------------------------------------------------------------|
Db|--7-----7-----7-----7-----9-----9-----9----9-----9-----9-----9-----9----12----12----12----12-----|
Ab|-------------------------------------------------------------------------------------------------|
Eb|-------------------------------------------------------------------------------------------------|
*****************************************************************************************************
eb|--12------------------9---9----------------------------------------------------------------------|
Bb|--------9-10------10-----------12--12~-----------10-----9--9--------9--10------------------------|
Gb|-----------------------------------------------------------------------------9--9~---------------|
Db|-------------------------------------------------------------------------------------------------|
Ab|-------------------------------------------------------------------------------------------------|
Eb|-------------------------------------------------------------------------------------------------|

Verse
eb|-------------------------------------------------------------------------------------------------|
Bb|--------------------------7--7--7--7--7--7--7--7--------------------------9--9--9--9--9--9--9--9-|
Gb|--6--6--6--6--6--6--6--6--7--7--7--7--7--7--7--7--6--6--6--6--6--6--6--6--9--9--9--9--9--9--9--9-|
Db|--7--7--7--7--7--7--7--7--7--7--7--7--7--7--7--7--7--7--7--7--7--7--7--7--9--9--9--9--9--9--9--9-|
Ab|--7--7--7--7--7--7--7--7--5--5--5--5--5--5--5--5--7--7--7--7--7--7--7--7--7--7--7--7--7--7--7--7-|
Eb|--5--5--5--5--5--5--5--5--5--5--5--5--5--5--5--5--5--5--5--5--5--5--5--5--7--7--7--7--7--7--7--7-|

eb|-------------------------------------------------------------------------------------------------|
Bb|--------------------------7--7--7--7--7--7--7--7-------------------------------------------------|
Gb|--6--6--6--6--6--6--6--6--7--7--7--7--7--7--7--7--7--7--7--7--7--7--7--7--7--7--7--7--7--7--7--7-|
Db|--7--7--7--7--7--7--7--7--7--7--7--7--7--7--7--7--9--9--9--9--9--9--9--9--9--9--9--9--9--9--9--9-|
Ab|--7--7--7--7--7--7--7--7--5--5--5--5--5--5--5--5--9--9--9--9--9--9--9--9--9--9--9--9--9--9--9--9-|
Eb|--5--5--5--5--5--5--5--5--5--5--5--5--5--5--5--5--7--7--7--7--7--7--7--7--7--7--7--7--7--7--7--7-|
*****************************************************************************************************
eb|-------------------------------------------------------------------------------------------------|
Bb|----------------------------------------------------12----12----12----12----12----12----12----12-|
Gb|-------------------------------------------------------------------------------------------------|
Db|--------------------------------------------------9-----9-----9-----9-----9-----9-----9-----9----|
Ab|-------------------------------------------------------------------------------------------------|
Eb|-------------------------------------------------------------------------------------------------|

eb|--------------------------------------------------|
Bb|--9--9--9--9--9--9--9--9--9--9--9--9--9--9--9--9--|
Gb|--9--9--9--9--9--9--9--9--9--9--9--9--9--9--9--9--|
Db|--9--9--9--9--9--9--9--9--9--9--9--9--9--9--9--9--|
Ab|--7--7--7--7--7--7--7--7--7--7--7--7--7--7--7--7--|
Eb|--7--7--7--7--7--7--7--7--7--7--7--7--7--7--7--7--|
******************************************************
eb|--------------------------------------------------|
Bb|-----14----14----14----14----15----15----15----15-|
Gb|--------------------------------------------------|
Db|--11----11----11----11----12----12----12----12----|
Ab|--------------------------------------------------|
Eb|--------------------------------------------------|

eb|-------------------------------------------------------------------------------------------------|
Bb|--------------------------7--7--7--7--7--7--7--7--------------------------9--9--9--9--9--9--9--9-|
Gb|--6--6--6--6--6--6--6--6--7--7--7--7--7--7--7--7--6--6--6--6--6--6--6--6--9--9--9--9--9--9--9--9-|
Db|--7--7--7--7--7--7--7--7--7--7--7--7--7--7--7--7--7--7--7--7--7--7--7--7--9--9--9--9--9--9--9--9-|
Ab|--7--7--7--7--7--7--7--7--5--5--5--5--5--5--5--5--7--7--7--7--7--7--7--7--7--7--7--7--7--7--7--7-|
Eb|--5--5--5--5--5--5--5--5--5--5--5--5--5--5--5--5--5--5--5--5--5--5--5--5--7--7--7--7--7--7--7--7-|

eb|-------------------------------------------------------------------------------------------------|
Bb|--------------------------7--7--7--7--7--7--7--7-------------------------------------------------|
Gb|--6--6--6--6--6--6--6--6--7--7--7--7--7--7--7--7--7--7--7--7--7--7--7--7--7--7--7--7--7--7--7--7-|
Db|--7--7--7--7--7--7--7--7--7--7--7--7--7--7--7--7--9--9--9--9--9--9--9--9--9--9--9--9--9--9--9--9-|
Ab|--7--7--7--7--7--7--7--7--5--5--5--5--5--5--5--5--9--9--9--9--9--9--9--9--9--9--9--9--9--9--9--9-|
Eb|--5--5--5--5--5--5--5--5--5--5--5--5--5--5--5--5--7--7--7--7--7--7--7--7--7--7--7--7--7--7--7--7-|
*****************************************************************************************************
eb|-------------------------------------------------------------------------------------------------|
Bb|----------------------------------------------------12----12----12----12----12----12----12----12-|
Gb|-------------------------------------------------------------------------------------------------|
Db|--------------------------------------------------9-----9-----9-----9-----9-----9-----9-----9----|
Ab|-------------------------------------------------------------------------------------------------|
Eb|-------------------------------------------------------------------------------------------------|

eb|--------------------------------------------------|
Bb|--9--9--9--9--9--9--9--9--9--9--9--9--9--9--9--9--|
Gb|--9--9--9--9--9--9--9--9--9--9--9--9--9--9--9--9--|
Db|--9--9--9--9--9--9--9--9--9--9--9--9--9--9--9--9--|
Ab|--7--7--7--7--7--7--7--7--7--7--7--7--7--7--7--7--|
Eb|--7--7--7--7--7--7--7--7--7--7--7--7--7--7--7--7--|
******************************************************
eb|-----------------12-------------------------------|
Bb|-----14----15----------------15--15--15--15--15---|
Gb|------------------------------x---x---x---x---x---|
Db|--11----11-----------12------12--12--12--12--12---|
Ab|--------------------------------------------------|
Eb|--------------------------------------------------|

Chorus
eb|-------------------------------------------------------------------------------------------------|
Bb|-------------------------------------------------------------------------------------------------|
Gb|--------------------------------------------------9--9--9--9--9--9--9--9-------------------------|
Db|--7--7--7--7--7--7--7--7--9--9--9--9--9--9--9--9--9--9--9--9--9--9--9--9--7--7--7--7--7--7--7--7-|
Ab|--7--7--7--7--7--7--7--7--9--9--9--9--9--9--9--9--7--7--7--7--7--7--7--7--7--7--7--7--7--7--7--7-|
Eb|--5--5--5--5--5--5--5--5--7--7--7--7--7--7--7--7--7--7--7--7--7--7--7--7--5--5--5--5--5--5--5--5-|
*****************************************************************************************************
eb|-------------------------------------------------------------------------------------------------|
Bb|--10----10----10----10----12----12----12----12----12----12----12---12----14----14----14----14----|
Gb|-------------------------------------------------------------------------------------------------|
Db|-----7-----7-----7-----7-----9-----9-----9-----9-----9-----9----9-----9-----11----11----11----11-|
Ab|-------------------------------------------------------------------------------------------------|
Eb|-------------------------------------------------------------------------------------------------|


eb|-------------------------------------------------------------------------------------------------|
Bb|-------------------------------------------------------------------------------------------------|
Gb|--------------------------------------------------9--9--9--9--9--9--9--9-------------------------|
Db|--7--7--7--7--7--7--7--7--9--9--9--9--9--9--9--9--9--9--9--9--9--9--9--9--7--7--7--7--7--7--7--7-|
Ab|--7--7--7--7--7--7--7--7--9--9--9--9--9--9--9--9--7--7--7--7--7--7--7--7--7--7--7--7--7--7--7--7-|
Eb|--5--5--5--5--5--5--5--5--7--7--7--7--7--7--7--7--7--7--7--7--7--7--7--7--5--5--5--5--5--5--5--5-|
*****************************************************************************************************
eb|-------------------------------------------------------------------------------------------------|
Bb|--14----14----15----15----12----12----12----12----12----12----12----12----10----10----10----10---|
Gb|-------------------------------------------------------------------------------------------------|
Db|-----11----11----12----12----9-----9-----9-----9-----9-----9-----9-----9-----7-----7-----7-----7-|
Ab|-------------------------------------------------------------------------------------------------|
Eb|-------------------------------------------------------------------------------------------------|

eb|-----------------------------------------------------------------------------------|
Bb|--14--9--10~-----------------------------------------------------------------------|
Gb|---x--x---x------------------------------------9-----------------------------------|
Db|--11--6---7~-----------7--7~~~~-----9--9----7-----(7)-6--7----7--7--7~-------6~----|
Ab|-----------------------------------------------------------------------------------|
Eb|-----------------------------------------------------------------------------------|
	
Second Verse
eb|-------------------------------------------------------------------------------------------------|
Bb|--------------------------7--7--7--7--7--7--7--7--------------------------9--9--9--9--9--9--9--9-|
Gb|--6--6--6--6--6--6--6--6--7--7--7--7--7--7--7--7--6--6--6--6--6--6--6--6--9--9--9--9--9--9--9--9-|
Db|--7--7--7--7--7--7--7--7--7--7--7--7--7--7--7--7--7--7--7--7--7--7--7--7--9--9--9--9--9--9--9--9-|
Ab|--7--7--7--7--7--7--7--7--5--5--5--5--5--5--5--5--7--7--7--7--7--7--7--7--7--7--7--7--7--7--7--7-|
Eb|--5--5--5--5--5--5--5--5--5--5--5--5--5--5--5--5--5--5--5--5--5--5--5--5--7--7--7--7--7--7--7--7-|

eb|-------------------------------------------------------------------------------------------------|
Bb|--------------------------7--7--7--7--7--7--7--7-------------------------------------------------|
Gb|--6--6--6--6--6--6--6--6--7--7--7--7--7--7--7--7--7--7--7--7--7--7--7--7--7--7--7--7--7--7--7--7-|
Db|--7--7--7--7--7--7--7--7--7--7--7--7--7--7--7--7--9--9--9--9--9--9--9--9--9--9--9--9--9--9--9--9-|
Ab|--7--7--7--7--7--7--7--7--5--5--5--5--5--5--5--5--9--9--9--9--9--9--9--9--9--9--9--9--9--9--9--9-|
Eb|--5--5--5--5--5--5--5--5--5--5--5--5--5--5--5--5--7--7--7--7--7--7--7--7--7--7--7--7--7--7--7--7-|
*****************************************************************************************************
eb|-------------------------------------------------------------------------------------------------|
Bb|----------------------------------------------------12----12----12----12----12----12----12----12-|
Gb|-------------------------------------------------------------------------------------------------|
Db|--------------------------------------------------9-----9-----9-----9-----9-----9-----9-----9----|
Ab|-------------------------------------------------------------------------------------------------|
Eb|-------------------------------------------------------------------------------------------------|

eb|--------------------------------------------------|
Bb|--9--9--9--9--9--9--9--9--9--9--9--9--9--9--9--9--|
Gb|--9--9--9--9--9--9--9--9--9--9--9--9--9--9--9--9--|
Db|--9--9--9--9--9--9--9--9--9--9--9--9--9--9--9--9--|
Ab|--7--7--7--7--7--7--7--7--7--7--7--7--7--7--7--7--|
Eb|--7--7--7--7--7--7--7--7--7--7--7--7--7--7--7--7--|
******************************************************
eb|--------------------------------------------------|
Bb|-----14----14----14----14----15----15----15----15-|
Gb|--------------------------------------------------|
Db|--11----11----11----11----12----12----12----12----|
Ab|--------------------------------------------------|
Eb|--------------------------------------------------|

eb|-------------------------------------------------------------------------------------------------|
Bb|--------------------------7--7--7--7--7--7--7--7--------------------------9--9--9--9--9--9--9--9-|
Gb|--6--6--6--6--6--6--6--6--7--7--7--7--7--7--7--7--6--6--6--6--6--6--6--6--9--9--9--9--9--9--9--9-|
Db|--7--7--7--7--7--7--7--7--7--7--7--7--7--7--7--7--7--7--7--7--7--7--7--7--9--9--9--9--9--9--9--9-|
Ab|--7--7--7--7--7--7--7--7--5--5--5--5--5--5--5--5--7--7--7--7--7--7--7--7--7--7--7--7--7--7--7--7-|
Eb|--5--5--5--5--5--5--5--5--5--5--5--5--5--5--5--5--5--5--5--5--5--5--5--5--7--7--7--7--7--7--7--7-|
*****************************************************************************************************
eb|-----9b10r9b10r9b10r9b10~-------------------------9b10r9b10r9b10r9b10~---------------------------|
Bb|-------------------------------------------------------------------------------------------------|
Gb|-------------------------------------------------------------------------------------------------|
Db|-------------------------------------------------------------------------------------------------|
Ab|-------------------------------------------------------------------------------------------------|
Eb|-------------------------------------------------------------------------------------------------|

eb|-------------------------------------------------------------------------------------------------|
Bb|--------------------------7--7--7--7--7--7--7--7-------------------------------------------------|
Gb|--6--6--6--6--6--6--6--6--7--7--7--7--7--7--7--7--7--7--7--7--7--7--7--7--7--7--7--7--7--7--7--7-|
Db|--7--7--7--7--7--7--7--7--7--7--7--7--7--7--7--7--9--9--9--9--9--9--9--9--9--9--9--9--9--9--9--9-|
Ab|--7--7--7--7--7--7--7--7--5--5--5--5--5--5--5--5--9--9--9--9--9--9--9--9--9--9--9--9--9--9--9--9-|
Eb|--5--5--5--5--5--5--5--5--5--5--5--5--5--5--5--5--7--7--7--7--7--7--7--7--7--7--7--7--7--7--7--7-|
*****************************************************************************************************
eb|-----9b10r9b10r9b10r9b10~------------------------------------------------------------------------|
Bb|-------------------------------------------------12-12-12-10-10-10-10-10--9--9--9--9--9--9--9--9-|
Gb|--------------------------------------------------x--x--x--x--x--x--x--x--x--x--x--x--x--x--x--x-|
Db|--------------------------------------------------9--9--9--7--7--7--7--7--6--6--6--6--6--6--6--6-|
Ab|-------------------------------------------------------------------------------------------------|
Eb|-------------------------------------------------------------------------------------------------|

eb|--------------------------------------------------|
Bb|--9--9--9--9--9--9--9--9--9--9--9--9--9--9--9--9--|
Gb|--9--9--9--9--9--9--9--9--9--9--9--9--9--9--9--9--|
Db|--9--9--9--9--9--9--9--9--9--9--9--9--9--9--9--9--|
Ab|--7--7--7--7--7--7--7--7--7--7--7--7--7--7--7--7--|
Eb|--7--7--7--7--7--7--7--7--7--7--7--7--7--7--7--7--|
******************************************************
eb|--------------------------------------------------|
Bb|--17-17-17-17~-------------17---------------------|
Gb|---x--x--x--x-------------------------------------|
Db|--14-14-14-14~-----------------14~----------------|
Ab|--------------------------------------------------|
Eb|--------------------------------------------------|

Second Chorus
eb|-------------------------------------------------------------------------------------------------|
Bb|-------------------------------------------------------------------------------------------------|
Gb|--------------------------------------------------9--9--9--9--9--9--9--9-------------------------|
Db|--7--7--7--7--7--7--7--7--9--9--9--9--9--9--9--9--9--9--9--9--9--9--9--9--7--7--7--7--7--7--7--7-|
Ab|--7--7--7--7--7--7--7--7--9--9--9--9--9--9--9--9--7--7--7--7--7--7--7--7--7--7--7--7--7--7--7--7-|
Eb|--5--5--5--5--5--5--5--5--7--7--7--7--7--7--7--7--7--7--7--7--7--7--7--7--5--5--5--5--5--5--5--5-|
*****************************************************************************************************
eb|-------------------------------------------------------------------------------------------------|
Bb|--10----10----10----10----12----12----12----12----12----12----12---12----14----14----14----14----|
Gb|-------------------------------------------------------------------------------------------------|
Db|-----7-----7-----7-----7-----9-----9-----9-----9-----9-----9----9-----9-----11----11----11----11-|
Ab|-------------------------------------------------------------------------------------------------|
Eb|-------------------------------------------------------------------------------------------------|

eb|-------------------------------------------------------------------------------------------------|
Bb|-------------------------------------------------------------------------------------------------|
Gb|--------------------------------------------------9--9--9--9--9--9--9--9-------------------------|
Db|--7--7--7--7--7--7--7--7--9--9--9--9--9--9--9--9--9--9--9--9--9--9--9--9--7--7--7--7--7--7--7--7-|
Ab|--7--7--7--7--7--7--7--7--9--9--9--9--9--9--9--9--7--7--7--7--7--7--7--7--7--7--7--7--7--7--7--7-|
Eb|--5--5--5--5--5--5--5--5--7--7--7--7--7--7--7--7--7--7--7--7--7--7--7--7--5--5--5--5--5--5--5--5-|
*****************************************************************************************************
eb|-------------------------------------------------------------------------------------------------|
Bb|--14----14----15----15----12----12----12----12----12----12----12----12----10----10----10----10---|
Gb|-------------------------------------------------------------------------------------------------|
Db|-----11----11----12----12----9-----9-----9-----9-----9-----9-----9-----9-----7-----7-----7-----7-|
Ab|-------------------------------------------------------------------------------------------------|
Eb|-------------------------------------------------------------------------------------------------|

Outro
eb|--------------------------------------------------------------------|
Bb|--14--9--10~----------10----10----10----10----10----10----10----10--|
Gb|---x--x---x---------------------------------------------------------|
Db|--11--6---7~--------7-----7-----7-----7-----7-----7-----7-----7-----|
Ab|--------------------------------------------------------------------|
Eb|--------------------------------------------------------------------|

eb|--------------------------------------------|
Bb|-----9-----9-----9-----9----10-----10--10~--|
Gb|----------------------------------------x---|
Db|--6-----6-----6-----6-----7-----7-------7~--|
Ab|--------------------------------------------|
Eb|--------------------------------------------|

eb|--12----------------12----------------12----------------12------------|
Bb|------9--10~------------9--10~------------9--10~------------9--10~----|
Gb|----------------------------------------------------------------------|
Db|----------------------------------------------------------------------|
Ab|----------------------------------------------------------------------|
Eb|----------------------------------------------------------------------|

eb|--12--12\14--12~--------12--12--10~--------10--10--9--(10)~--------9--9----------|
Bb|-------------------------------------------------------------------------9--10~--|
Gb|---------------------------------------------------------------------------------|
Db|---------------------------------------------------------------------------------|
Ab|---------------------------------------------------------------------------------|
Eb|---------------------------------------------------------------------------------|

eb|--9----10----9--7~--------10----9--7~--------9---7-------|
Bb|----------------------------------------------------10~--|
Gb|---------------------------------------------------------|
Db|---------------------------------------------------------|
Ab|---------------------------------------------------------|
Eb|---------------------------------------------------------|

eb|--9----10----9--7~--------10---9--7~--------17\----------------21-----------|
Bb|-------------------------------------------------9--10~------------21--22~--|
Gb|----------------------------------------------------------------------------|
Db|----------------------------------------------------------------------------|
Ab|----------------------------------------------------------------------------|
Eb|----------------------------------------------------------------------------|
Добавлено: 10.07.2012
Другие материалы по этой песне:

Страница создана 24.06.2012
http://primanota.ru/weezer/superfriend-chords.htm
Привет, Гость.
Предлагаем пройти революционный курс по гитаре.
Подарок от PrimaNota.Ru, забирай!