PrimaNota.ru - самый крупный в мире бесплатный архив песенных текстов, аккордов, табулатур и нот


Weezer - Polynesia - таба, видео

Регистрация Запомнить меня
Войти через:  Facebook Google Twitter Vk Yandex Mail.ru

Weezer - Polynesia - таба, видео

Печатать
Просмотров: 147
Уроки эстрадного вокала в Санкт-Петербурге
Авторы музыки: Scott Shriner

-------------------------------------------------------------------------------
                             Polynesia - Weezer
-------------------------------------------------------------------------------

Tabbed by: cjpm105

Tuning: Guitar 1 - Standard
        Guitar 2 - Standard

Key
h  hammer-on
p  pull-off
\  slide up
/  slide down
~  sustain

This song is a two and half minute instrumental from The Lion And The Witch EP.

Guitar 1 is above the asterisks and Guitar 2 is below; they're played simultaneously, 
one after
the other. Guitar 1 is clean with reverb or short delay and Guitar 2 has light 
with delay
at some points.

e|-----------------------------------------------------------------------------------|
B|-------------------------------9---------------------9-------------------9---------|
G|---------------------------11-----11-------------11-------------------------11-----|
D|-----------------------11--------------------11------------11--------11------------|
A|--------------------9---------------------9-------------9---------9-------------9--|
E|-----------------------------------------------------------------------------------|
**************************************************************************************
e|-----------------------------------------------------------------------------------|
B|-----------------------------------------------------------------------------------|
G|--8h11p8---------------------------------------------------------------------------|
D|----------11------------------------------8--6-------------------------------------|
A|--------------9\11-----------------------------------------------------------------|
E|-----------------------------------------------------------------------------------|

e|------------------------------------------------------------------------------------|
B|--------------9\11-9--------------------------9-------------------------------------|
G|--10--------------------11p10-8--------------------11----10-------------------------|
D|----------11--------------------11-------11----------------------------------11-----|
A|-------9------------------------------9-----------------------------------9------9--|
E|------------------------------------------------------------------------------------|
***************************************************************************************
e|------------------------------------------------------------------------------------|
B|-------9h11~------------------------------------------------------------------------|
G|---------------------------------------------------------10--8--8h10~---------------|
D|------------------------------------------------------------------------------------|
A|------------------------------------------------------------------------------------|
E|------------------------------------------------------------------------------------|

e|---------------------------------------------------------------------------------|
B|----------9-------------------------9--\11---------------------------------------|
G|---------------11--------------------------------11----10-------10\11/10--8------|
D|-----11-------------------------11-------------------------------------------11--|
A|--9--------------------------9---------------------------------------------------|
E|---------------------------------------------------------------------------------|
************************************************************************************
e|---------------------------------------------------------------------------------|
B|---------------------------------------------------------------------------------|
G|--------------------------------------10----10----10----10----10----10----10-----|
D|-----------------------------------11----11----11----11----11----11----11----11--|
A|---------------------------------------------------------------------------------|
E|---------------------------------------------------------------------------------|

  0:45
e|---------------------------------------------------------------------------------|
B|----------------------------9-----------9----------------------------------------|
G|-------------------------------11----------11------------------------------------|
D|-------------------------------------11------------------------------------------|
A|---------------------------------------------------------------------------------|
E|---------------------------------------------------------------------------------|
************************************************************************************
e|---------------------------------------------------------------------------------|
B|---------------------------------------------------------------------------------|
G|-----11----11----11----11----11----11----11----11----11----11----11----11----11--|
D|--11----11----11----11----11----11----11----11----11----11----11----11----11-----|
A|---------------------------------------------------------------------------------|
E|---------------------------------------------------------------------------------|

e|---------------------------------------------------------------------------------|
B|-----------------------------------------------------------9---------------------|
G|--------------------------------------------------------------11~----------------|
D|----------11~------11-11~--------------------------------------------------------|
A|---------------------------------------------------------------------------------|
E|---------------------------------------------------------------------------------|
************************************************************************************
e|---------------------------------------------------------------------------------|
B|---------------------------------------------------------------------------------|
G|-----10----10----10----10----10----10----10----10----8----8----8----8----8----8--|
D|--11----11----11----11----11----11----11----11----11---11---11---11---11---11----|
A|---------------------------------------------------------------------------------|
E|---------------------------------------------------------------------------------|

e|---------------------------------------------------------------------------------|
B|---------------------------------------------------------------------------------|
G|--------------------------------------8------------8-----------------------------|
D|-----------------------------------------11-----------11----------------8~--\11--|
A|---------------------------------------------------------------------------------|
E|---------------------------------------------------------------------------------|
************************************************************************************
e|---------------------------------------------------------------------------------|
B|---------------------------------------------------------------------------------|
G|-----8----8----8----8----8----8--------------------------------------------------|
D|--11---11---11---11---11---11---11---11---11---11---11---11---11---11---11---11--|
A|-----------------------------------9----9----9----9----9----9----9----9----9-----|
E|---------------------------------------------------------------------------------|

  1:09
e|----------------------------------------------------------------------------------|
B|----------------------------------------------------------------------------------|
G|----------------------------------------------------------------------------------|
D|----------------------------------------------------------------------------------|
A|----------------------------------------------------------------------------------|
E|----------------------------------------------------------------------------------|
*************************************************************************************
e|----------------------------------------------------------------------------------|
B|--11----11----11----11----11----11----11----9----9----9----9----9----9----9----9--|
G|-----11----11----11----11----11----11----11---11---11---11---11---11---11---11----|
D|----------------------------------------------------------------------------------|
A|----------------------------------------------------------------------------------|
E|----------------------------------------------------------------------------------|

e|------------------------------------------------------------------------------------|
B|------------------------------------------------------------------------------------|
G|------------------------------------------------------------------------------------|
D|------------------------------------------------------------------------------------|
A|------------------------------------------------------------------------------------|
E|------------------------------------------------------------------------------------|
***************************************************************************************
e|------------------------------------------------------------------------------------|
B|------------------------------------------------------------------------------------|
G|--11----11----11----11----11----11----11----11----11----10----10----10----10----10--|
D|-----11----11----11----11----11----11----11----11----11----11----11----11----11-----|
A|------------------------------------------------------------------------------------|
E|------------------------------------------------------------------------------------|

e|-----------------------------------------------------------------------------------|
B|---------------------------------------9---------------9---9---11---9----------11--|
G|--------------------------------------------11--------10--11---13--10----------13--|
D|-----------------------------------------------------------------------------------|
A|-----------------------------------------------------------------------------------|
E|-----------------------------------------------------------------------------------|
**************************************************************************************
e|-----------------------------------------------------------------------------------|
B|-----------------------------------------------------------------------------------|
G|-----10----10----10----10----8-----8----8----8----8----8----8----8-----------------|
D|--11----11----11----11----11---11---11---11---11---11---11---11---11---11---11-----|
A|---------------------------------------------------------------------9----9----9---|
E|-----------------------------------------------------------------------------------|

e|--------------------------------------------------------------------------|
B|-----------------11--------------------------------11------11--11---------|
G|---------11--13------10------------------------13--13--13--13--11---------|
D|--------------------------------------------------------------------------|
A|--------------------------------------------------------------------------|
E|--------------------------------------------------------------------------|
*****************************************************************************
e|--------------------------------------------------------------------------|
B|--------------------------------------------------------------------------|
G|--------------------------------------------------------------------------|
D|----11---11---11---11---11---11---11---9---9---9---9---9---9---9---9---9--|
A|--9----9----9----9----9----9----9----9---9---9---9---9---9---9---9---9----|
E|--------------------------------------------------------------------------|

  1:46
e|-------------------------------------------------------------------------------------|
B|-------------------------------------------------------------------------------------|
G|-------------------------------------------------------------------------------------|
D|--------------------------------------------------------------------11--11~----------|
A|-------------------------------------------------------------------------------------|
E|-------------------------------------------------------------------------------------|
****************************************************************************************
e|-------------------------------------------------------------------------------------|
B|-------------------------------------------------------------------------------------|
G|----11---11---11---11---11---11---11---11---11---11---11---11---11---11---11---11----|
D|----11---11---11---11---11---11---11---11---11---11---11---11---11---11---11---11----|
A|--9----9----9----9----9----9----9----9----9----9----9----9----9----9----9----9----9--|
E|-------------------------------------------------------------------------------------|

e|-------------------------------------------------------------------------------------|
B|-------------------------------------------------------------------------------------|
G|----11---11---11---11---11---11---11---11---11---11---11---11---11---11---11---11----|
D|----11---11---11---11---11---11---11---11---11---11---11---11---11---11---11---11----|
A|--9----9----9----9----9----9----9----9----9----9----9----9----9----9----9----9----9--|
E|-------------------------------------------------------------------------------------|

e|-------------------------------------------------------------------------------------|
B|-------------------------------------------------------------------------------------|
G|----11---11---11---11---11---11---11---11---11---11---11---11---11---11---11---11----|
D|----11---11---11---11---11---11---11---11---11---11---11---11---11---11---11---11----|
A|--9----9----9----9----9----9----9----9----9----9----9----9----9----9----9----9----9--|
E|-------------------------------------------------------------------------------------|

e|-------------------------------------------------------------------------------------|
B|-------------------------------------------------------------------------------------|
G|----11---11---11---11---11---11---11---11---11---11---11---11---11---11---11---11----|
D|----11---11---11---11---11---11---11---11---11---11---11---11---11---11---11---11----|
A|--9----9----9----9----9----9----9----9----9----9----9----9----9----9----9----9----9--|
E|-------------------------------------------------------------------------------------|

e|-------------------------------------------------------------------------------------|
B|-------------------------------------------------------------------------------------|
G|----11---11---11---11---11---11---11---11---11---11---11---11---11---11---11---11----|
D|----11---11---11---11---11---11---11---11----9----9----9----9---11---11---11---11----|
A|--9----9----9----9----9----9----9----9----9----9----9----9----9----9----9----9----9--|
E|-------------------------------------------------------------------------------------|

e|-------------------------------------------------------------------------------------|
B|-------------------------------------------------------------------------------------|
G|----11---11---11---11---11---11---11---11---11---11---11---11---11---11---11---11----|
D|----11---11---11---11---11---11---11---11----9----9----9----9---11---11---11---11----|
A|--9----9----9----9----9----9----9----9----9----9----9----9----9----9----9----9----9--|
E|-------------------------------------------------------------------------------------|

e|----------------------------------|
B|---9---9---9---9---9---9---9---9--|
G|--11--11--11--11--11--11--11--11--|
D|--11--11--11--11--11--11--11--11--|
A|---9---9---9---9---9---9---9---9--|
E|----------------------------------|
Добавлено: 25.03.2012
Другие материалы по этой песне:
  • Аккорды и текст

Страница создана 25.03.2012
http://primanota.ru/weezer/polynesia-chords.htm
Привет, Гость.
Предлагаем пройти революционный курс по гитаре.
Подарок от PrimaNota.Ru, забирай!