PrimaNota.ru - самый крупный в мире бесплатный архив песенных текстов, аккордов, табулатур и нот


Warren Zevon - Wanted Dead Or Alive - текст песни, таба, видео

Регистрация Запомнить меня
Войти через:  Facebook Google Twitter Vk Yandex Mail.ru

Warren Zevon - Wanted Dead Or Alive - текст песни, таба, видео

Печатать
Просмотров: 421
Авторы: Kim Fowley

-------------------------------------------------------------------------------
                             Warren Zevon - Dead or Alive
-------------------------------------------------------------------------------
Tabbed by: Marko Joksimovic
E-mail: mar.joksimovic@gmail.com

Tuning: Standard tuning 


    A    Em            G
e|---------------------3--3--3--3--------------------------------------------|
B|---------------------3--3--3--3--------------------------------------------|
G|---------------------0--0--0--0---------------<< REPEAT >>---------------
D|--0----2-x-2--2------0-----------------------------------------------------|
A|--0----2-x-2--2------2----------------------------------------------------|
E|--x----0-x-0--0------3-----------------------------------------------------|


dig it....   Em      Bm      Am      Em    G      A       Bm
e|----------------------------------------3----------------------------------|
B|-------------------2-------1------------3-------2-------2------------------|
G|------------0------4-------2-------0----0-------2-------4------------------|
D|------------2-x4---4-x4----2-x4----2-x4-0-x4----2-x4----4--x4--------------|
A|------------2------2-------0-------2----2-------0-------2------------------|
E|------------0----------------------0----3----------------------------------|

   A    Em            G
e|--x------------------3--3--3--3--------------------------------------------|
B|--x------------------3--3--3--3--------------------------------------------|
G|--x------------------0--0--0--0---------------<< REPEAT >>---------------
D|--0----2-x--2--2------0-----------------------------------------------------|
A|--0----2-x--2--2------2----------------------------------------------------|
E|--0----0-x--0--0------3-----------------------------------------------------|

*******************************************************************************

BASS Tab (or guitar with e dropped to d)

e|---------------------------------------------------------------------------|
B|---------------------------------------------------------------------------|
G|---------------------------------------------------------------------------|
D|-2-2---2--5--2--8--7--5--7--5--2--5--2--2-------7--5--(7)---0---2---2------|


********************************************************************************
first time tabbing, pretty sure its correct. questions or comments? feel free to mail me :)
Добавлено: 13.07.2015
Другие материалы по этой песне:
  • Аккорды и текст

Страница создана 14.04.2012
http://primanota.ru/warren-zevon/wanted-dead-or-alive-chords.htm
Привет, Гость.
Предлагаем пройти революционный курс по гитаре.
Подарок от PrimaNota.Ru, забирай!