PrimaNota.ru - самый крупный в мире бесплатный архив песенных текстов, аккордов, табулатур и нот


Warren Zevon - Searching For A Heart - аккорды и текст, видео

Регистрация Запомнить меня
Войти через:  Facebook Google Twitter Vk Yandex Mail.ru

Warren Zevon - Searching For A Heart - аккорды и текст, видео

Печатать
Просмотров: 112
Авторы музыки: Warren Zevon
Авторы текста: Warren Zevon
Searching For A Heart
Warren Zevon
Intro:
Em7 D Gsus2 G Gsus2 G

Verse I:
                Em7       Am7             
Darkness in the morning
               Em7 
Shadows on the land
            Cadd9
Certain individuals
                         D
Aren't sticking with the plan


Chorus: 
                        E       Cadd9
And I'm searching for a heart
               Gsus2 G Gsus2 G   
Searching everyone
                       Em7
They say love conquers all
                          D
You can't start it like a car
                         Gsus2 G Gsus2 G 
You can't stop it with a gun


Verse II:
Leaving in the evening
Traveling at night
Staying inconspicuous
I'm staying out of sight


Chorus II:
And I'm searching for a heart
Searching everyone
They say love conquers all
You can't start it like a car
You can't stop it with a gun

             C                      G
They tell me love requires a little standing in line
              C                             G 
And I've been waiting for you, lover, for a long, long time
          C
I've been pacing the floor
          G
I've been watching the door
C                   D 
Meanwhile I'll keep searching for a heart


Solo:

Em     Cadd9      Gsus2 G Gsus2 G  Em            D            Gsus2 G Gsus2 G

e|--------------------------------------------------------------------------|
B|--------------------------------------------------------------------------|
G|9\7-7----------------------------12\11-9----------------------------------|
D|---9-9b-9b9-7---------------------------12-12/14-14\12-10\9-9/10-12-------|
A|--------------10\5--------------------------------------------------------|
E|--------------------------------------------------------------------------|


Verse III:
Searching high and low for you
Trying to track you down
Certain individuals
Have finally come around


Chorus III:
And I'm searching for a heart
Searching everyone
They say love conquers all
You can't start it like a car
You can't stop it with a gun

They tell me love requires a little standing in line
And I've been waiting for you, lover, for a long, long time
I've been pacing the floor I've been watching the door
Meanwhile I'll keep searching for a heart
Searching everyone
They say love conquers all
You can't start it like a car
You can't stop it with a gun

Outro:
                Em     Cadd9          Gsus2 G Gsus2 G
Searching for a heart...

e|-----------------------------------------------------|
B|-----------------------------------------------------|
G|-----------------------------------------------------|
D|-------9h10p9-10/12----------12\10-9b9---------------|
A|-----------------------------------------10----------|
E|-----------------------------------------------------|

                Em      D           Gsus2 G Gsus2 G
Searching for a heart...

e|--------------------------------------------------|
B|--------------------------------------------------|
G|--------------------------------------------------|
D|----------------12-14\12------9b9/12--------------|
A|--------------------------------------------------|
E|--------------------------------------------------|

    Em     Cadd9           Gsus2 G Gsus2 G   Em  D       Gsus2 G Gsus2 G

e|--------------------------------------------------------------------------|
B|--------------------------------------------------------------------------|
G|-------------------------------------------12----11p9--12-----------------|
D|--14p12h12--------9-10-12\9--------------------------12-------------------|
A|--------------------------------------------------------------------------|
E|--------------------------------------------------------------------------|

Em Cadd9 Gsus2 G Gsus2 G
Em D Gsus2 G Gsus2 G (repeat and fade)
Добавлено: 11.06.2012
Другие материалы по этой песне:
  • Аккорды и текст

Страница создана 01.03.2012
http://primanota.ru/warren-zevon/searching-for-a-heart-chords.htm
Привет, Гость.
Предлагаем пройти революционный курс по гитаре.
Подарок от PrimaNota.Ru, забирай!