PrimaNota.ru - самый крупный в мире бесплатный архив песенных текстов, аккордов, табулатур и нот


Warren Zevon - Charlie's Medicine - текст песни, таба, видео

Регистрация Запомнить меня
Войти через:  Facebook Google Twitter Vk Yandex Mail.ru

Warren Zevon - Charlie's Medicine - текст песни, таба, видео

Печатать
Просмотров: 86
-------------------------------------------------------------------------------
                             Charlie's Medicine - Warren Zevon
                                     The Envoy (1982)
-------------------------------------------------------------------------------
Tabbed by: Mike
E-mail: robbins.mid@gmail.com

Tuning: Standard
-------------------------------------------------------------------------------

Verse 1a

  E-7   C    D
e|---------------------------------------------------------------------------|
B|---0-----------------------------------------------------------------------|
G|----0----0----2------------------------------------------------------------|X11
D|1/2-------2----4-----------------------------------------------------------|
A|------2/3--4/5-------------------------------------------------------------|
E|---------------------------------------------------------------------------|

Verse 1b

  E-
e|---------------------------------------------------------------------------|
B|---------------------------------------------------------------------------|
G|---------------------------------------------------------------------------|X1
D|0-2-0-2-0h2p0--------------------------------------------------------------|
A|-------------2p0-----------------------------------------------------------|
E|----------------3p0--------------------------------------------------------|

Verse 2a

  E-7     D7      E-7     D7      E-7     D7      D       E-
e|3-------2-------3-------2-------3-------2-------2-------0------------------|
B|3-------1-------3-------1-------3-------1-------3-------0------------------|
G|0-------2-------0-------2-------0-------2-------2-------0------------------|X1
D|2-------0-------2-------0-------2-------0-------0-------2------------------|
A|2-------x-------2-------X-------2-------X-------X-------2------------------|
E|0-------x-------0-------X-------0-------X-------X-------0------------------|

Verse 2b

  A-      E-
e|0-------0------|
B|1-------0------|
G|2-------0------|X1
D|2-------2------|
A|0-------2------|
E|x-------0------|

That is all you need to know. Take the time to figure out the picking and strumming 
patterns. Verse 2b is always A- to E-, but switches between 8 beats and 4 beats. It    
will take less energy for you to learn it, than for me to write it out. I know. I'm a
lazy, apathetic SOB and I don't care about you.

Also, the solo sections are Verse 1a (no tab, just follow the chord progression) and   
Verse 2a, respectively.

Good luck! My first tab btw...GO FUCK YOURSELF

************************************

| /   slide up
| h   hammer-on
| p   pull-off
| x   Mute note

************************************
Добавлено: 09.12.2015
Другие материалы по этой песне:
  • Аккорды и текст

Страница создана 05.05.2012
http://primanota.ru/warren-zevon/charlies-medicine-chords.htm
Привет, Гость.
Предлагаем пройти революционный курс по гитаре.
Подарок от PrimaNota.Ru, забирай!