PrimaNota.ru - самый крупный в мире бесплатный архив песенных текстов, аккордов, табулатур и нот


Ventures - Ram-bunk-shush - бас-таба, видео

Регистрация Запомнить меня
Войти через:  Facebook Google Twitter Vk Yandex Mail.ru

Ventures - Ram-bunk-shush - бас-таба, видео

Печатать
Просмотров: 87
Ventures_Ram-Bunk-Shush

Basstab by Jan Bjorklund, Finland
 jani_bjorklund@yahoo.se>
You are welcome to request for basstabs!
Fingering and positions as suggested by TablEdit,
please use common sense!

TablEdited by Jan Bjorklund
Tuning : E A D G 	Time Signature: 12/8

  |           |           |           |             
|-------------------------3---4---4---4---4---4----|
|-3---4---4---4---4---4----------------------------|
|--------------------------------------------------|
|--------------------------------------------------|

  |           |           |           |             
|--------------------------------------------------|
|-4------------------------------------------------|
|--------------------------------------------------|
|--------------------------------------------------|

  |           |           |           |             
|-------------6------------------------------------|
|---------------------3---6-----------3-------6----|
|-4------------------------------------------------|
|--------------------------------------------------|

  |           |           |           |             
|-------------6------------------------------------|
|---------------------3---6-----------3-------6----|
|-4------------------------------------------------|
|--------------------------------------------------|

  |           |           |           |             
|--------------------------------------------------|
|-------------4------------------------------------|
|---------------------1---4-----------1-------4----|
|-2------------------------------------------------|

  |           |           |           |             
|--------------------------------------------------|
|-------------4------------------------------------|
|---------------------1---4-----------1-------4----|
|-2------------------------------------------------|

  |           |           |           |             
|-------------6------------------------------------|
|---------------------3---6-----------3-------6----|
|-4------------------------------------------------|
|--------------------------------------------------|

  |           |           |           |             
|-------------6------------------------------------|
|---------------------3---6-----------3-------6----|
|-4------------------------------------------------|
|--------------------------------------------------|

  |           |           |           |             
|--------------------------------------------------|
|-4---4---4---4---4---4---6---7---7---7---7---7----|
|--------------------------------------------------|
|--------------------------------------------------|

  |           |           |           |             
|--------------------------------------------------|
|-4------------------------------------------------|
|--------------------------------------------------|
|--------------------------------------------------|

  |           |           |           |             
|-------------6------------------------------------|
|---------------------3---6-----------3-------6----|
|-4------------------------------------------------|
|--------------------------------------------------|

  |           |           |           |             
|-------------6------------------------------------|
|---------------------3---6-----------3-------6----|
|-4------------------------------------------------|
|--------------------------------------------------|

  |           |           |           |             
|--------------------------------------------------|
|-------------4------------------------------------|
|---------------------1---4-----------1-------4----|
|-2------------------------------------------------|

  |           |           |           |             
|--------------------------------------------------|
|-------------4------------------------------------|
|---------------------1---4-----------1-------4----|
|-2------------------------------------------------|

  |           |           |           |             
|-------------6------------------------------------|
|---------------------3---6-----------3-------6----|
|-4------------------------------------------------|
|--------------------------------------------------|

  |           |           |           |             
|-------------6------------------------------------|
|---------------------3---6-----------3-------6----|
|-4------------------------------------------------|
|--------------------------------------------------|

  |           |           |           |             
|--------------------------------------------------|
|-3---4---4---4---4---4---6---7---7---7---7---7----|
|--------------------------------------------------|
|--------------------------------------------------|

  |           |           |           |             
|--------------------------------------------------|
|-4------------------------------------------------|
|--------------------------------------------------|
|--------------------------------------------------|

  |           |           |           |             
|--------------------------------------------------|
|-4-----------2-----------1------------------------|
|-------------------------------------4------------|
|--------------------------------------------------|

  |           |           |           |             
|--------------------------------------------------|
|-4-----------2-----------1------------------------|
|-------------------------------------4------------|
|--------------------------------------------------|

  |           |           |           |             
|-------------------------------------1------------|
|-------------1-----------4------------------------|
|-2------------------------------------------------|
|--------------------------------------------------|

  |           |           |           |             
|-4-----------1------------------------------------|
|-------------------------4-----------1------------|
|--------------------------------------------------|
|--------------------------------------------------|

  |           |           |           |             
|--------------------------------------------------|
|-------------------------1-------1---3-------3----|
|-------------3-------3----------------------------|
|-4-------4----------------------------------------|

  |           |           |           |             
|-1-------1----------------------------------------|
|-------------3-------3---1-------1----------------|
|-------------------------------------3------------|
|--------------------------------------------------|

  |           |           |           |             
|--------------------------------------------------|
|--------------------------------------------------|
|-4---4---4---4---4---4---4---4---4---5---5---5----|
|--------------------------------------------------|

  |           |           |           |             
|--------------------------------------------------|
|--------------------------------------------------|
|-6------------------------------------------------|
|--------------------------------------------------|

  |           |           |           |             
|-------------8------------------------------------|
|---------------------5---8-----------5-------8----|
|-6------------------------------------------------|
|--------------------------------------------------|

  |           |           |           |             
|-------------8------------------------------------|
|---------------------5---8-----------5-------8----|
|-6------------------------------------------------|
|--------------------------------------------------|

  |           |           |           |             
|-------------1------------------------------------|
|-------------------------1-------------------1----|
|---------------------3---------------3------------|
|-4------------------------------------------------|

  |           |           |           |             
|-------------1------------------------------------|
|-------------------------1-------------------1----|
|---------------------3---------------3------------|
|-4------------------------------------------------|

  |           |           |           |             
|-------------8------------------------------------|
|---------------------5---8-----------5-------8----|
|-6------------------------------------------------|
|--------------------------------------------------|

  |           |           |           |             
|-------------8------------------------------------|
|---------------------5---8-----------5-------8----|
|-6------------------------------------------------|
|--------------------------------------------------|

  |           |           |           |             
|--------------------------------------------------|
|-6---6---6---6---6---6---9---9---9---9---9---9----|
|--------------------------------------------------|
|--------------------------------------------------|

  |           |           |           |             
|--------------------------------------------------|
|-6------------------------------------------------|
|--------------------------------------------------|
|--------------------------------------------------|

  |           |           |           |             
|-1------------------------------------------------|
|-------------4-----------3-----------1------------|
|--------------------------------------------------|
|--------------------------------------------------|

  |           |           |           |             
|-1------------------------------------------------|
|-------------4-----------3-----------1------------|
|--------------------------------------------------|
|--------------------------------------------------|

  |           |           |           |             
|-------------------------1-----------3------------|
|-------------3------------------------------------|
|-4------------------------------------------------|
|--------------------------------------------------|

  |           |           |           |             
|-6------------------------------------------------|
|-------------8-----------6------------------------|
|-------------------------------------8------------|
|--------------------------------------------------|

  |           |           |           |             
|--------------------------------------------------|
|-------------------------------------5-------5----|
|-------------5-------5---8-------8----------------|
|-6-------6----------------------------------------|

  |           |           |           |             
|-3-------3----------------------------------------|
|-------------5-------5---3-------3----------------|
|-------------------------------------5------------|
|--------------------------------------------------|

  |           |           |           |             
|--------------------------------------------------|
|--------------------------------------------------|
|-6---6---6---6---6---6---6---6---6---5---5---5----|
|--------------------------------------------------|

  |           |           |           |             
|--------------------------------------------------|
|--------------------------------------------------|
|-4------------------------------------------------|
|--------------------------------------------------|

  |           |           |           |             
|-------------6------------------------------------|
|---------------------3---6-----------3-------6----|
|-4------------------------------------------------|
|--------------------------------------------------|

  |           |           |           |             
|-------------6------------------------------------|
|---------------------3---6-----------3-------6----|
|-4------------------------------------------------|
|--------------------------------------------------|

  |           |           |           |             
|--------------------------------------------------|
|-------------4------------------------------------|
|---------------------1---4-----------1-------4----|
|-2------------------------------------------------|

  |           |           |           |             
|--------------------------------------------------|
|-------------4------------------------------------|
|---------------------1---4-----------1-------4----|
|-2------------------------------------------------|

  |           |           |           |             
|-------------6------------------------------------|
|---------------------3---6-----------3-------6----|
|-4------------------------------------------------|
|--------------------------------------------------|

  |           |           |           |             
|-------------6------------------------------------|
|---------------------3---6-----------3-------6----|
|-4------------------------------------------------|
|--------------------------------------------------|

  |           |           |           |             
|--------------------------------------------------|
|-3---4---4---4---4---4---6---7---7---7---7---7----|
|--------------------------------------------------|
|--------------------------------------------------|

  |           |           |           |             
|--------------------------------------------------|
|-4------------------------------------------------|
|--------------------------------------------------|
|--------------------------------------------------|

 


Created with TablEdit http://www.tabledit.com/
     
Добавлено: 23.08.2013
Другие материалы по этой песне:

Страница создана 26.07.2012
http://primanota.ru/ventures/ram-bunk-shush-chords.htm
Привет, Гость.
Предлагаем пройти революционный курс по гитаре.
Подарок от PrimaNota.Ru, забирай!