PrimaNota.ru - самый крупный в мире бесплатный архив песенных текстов, аккордов, табулатур и нот


Ventures - Journey To The Stars - таба, бас-таба, видео

Регистрация Запомнить меня
Войти через:  Facebook Google Twitter Vk Yandex Mail.ru

Ventures - Journey To The Stars - таба, бас-таба, видео

Печатать
Просмотров: 163
Song: Journey To The Stars
Artist: The Ventures
Album: Walk Don't Run
Tabbed By: Mickey Iotov

This is a very famous surfer punk song played over and over by various ska bands. 99% 
some parts played a little differently.

Intro:
Drum Beat in the beginning
E)--------------------------------------------------------|
B)--------------------------------------------------------| Listen for rythym
G)-2----5----2----7----2------5------7------9-------------|
D)-2----5----2----7----2-(x5)-5-(x5)-7-(x5)-9-------------|
A)-0----3----0----5----0------3------5------7-------------|
E)--------------------------------------------------------|
Guitar Interlude(With last 4 chords of intro):

E)------------------------------------------------------------|
B)-13--10--13--10--13--10--13--10---(x3)----------------------|
G)------------------------------------------------------------|
D)------------------------------------------------------------|
A)------------------------------------------------------------|
E)------------------------------------------------------------|

Main Riff
E)------------------------------------------------------------|
B)------------------------------------------------------------|
G)------------------------------------------------------------|
D)------------------------------------------------------------|
A)------------------------------------------------------------|
E)-5555-7777-88888888-7777-5555-77777777-5555-4444-55555555---|

E)------------------------------------------------------------|
B)------------------------------------------------------------|
G)------------------------------------------------------------|
D)------------------------------------------------------------|
A)-----------------------------------77-55--------------------|
E)-00000000-1111-3333-1111 0000-44-55-----88-77-55555-12/0000*|

Second Riff

E)------------------------------------------------------------|
B)------------------------------------------------------------|
G)------------------------------------------------------------|
D)--7-9-10--9h10-9-7-9-7h9--7-6-7-----------------------------|
A)-------------------------------7-7-8-8-10-8-10-8-7-7--------|
E)------------------------------------------------------------|

E)------------------------------------------------------------|
B)------------------------------------------------------------|
G)------9-7---------------------------------------------------|
D)-6-9------10-9----------------------------------------------|
A)------------------------------------------------------------|
E)----------------12/*----------------------------------------|

Then a lot of weird sax/keyboard synthstuff

Outro with a whammy
E)---------5--------------------------------------------------|
B)---------5--------------------------------------------------|
G)---------6--------------------------------------------------|
D)---------7--------------------------------------------------|
A)---------7--------------------------------------------------|
E)---12/0--5--------------------------------------------------|

*Played only the first time

Song Order:
Intro
Interlude
Main Riff
Interlude
Second Riff
Weird Stuff
Interlude
Second Riff
Interlude with Outro

A very nice song to jam on even with only a guitarist and a drummer, stay fly.
Добавлено: 17.07.2012
Другие материалы по этой песне:

Страница создана 09.07.2012
http://primanota.ru/ventures/journey-to-the-stars-chords.htm
Привет, Гость.
Предлагаем пройти революционный курс по гитаре.
Подарок от PrimaNota.Ru, забирай!