PrimaNota.ru - самый крупный в мире бесплатный архив песенных текстов, аккордов, табулатур и нот


Ventures - Harlem Nocturne - таба, бас-таба, видео

Регистрация Запомнить меня
Войти через:  Facebook Google Twitter Vk Yandex Mail.ru

Ventures - Harlem Nocturne - таба, бас-таба, видео

Печатать
Просмотров: 400
Уроки эстрадного вокала в Санкт-Петербурге
"Harlem Nocturne" by the Ventures
transcribed my Mike Youngblood

this is a jazzy little number from one of the great surf music outfits.  a great to
articulation and dynamics with.  listen to the song to get some of the more subtle nuances
in the tab. i use reverb, very light tremolo and light slapback delay to get somewhere 
to the tone.  put some soul into it(it will show, i promise, especially with this
and enjoy!!!!


standard tuning

-0----0--------0--2--3------0---0-------------0--|
-0----0-------0---------4---0-----0-----------1--|
-0----0-----0---------------0-------0---0--4--2--|
-2----2-----2---------------2---------2-------2--|
-2----2-----2---------------2-----------------0--|
-0----0---0-----------------0-----------------0--|

---------5--7--8\-----------------------0--|
--------5---------9-----10----------7---0--|
------5--------------------9-----8------0--|
------7----------------------10--9------2--|
------7--------------------------9------2--|
----5----------------------------7------0--|

--7-6-5-4------------------------------10-8-7----------------------|
----------8----5-6----/10--8----5--6----------8---6----------------|
------------7----------------7------------------7----7--5-----7----|
----------------------------------------------------------7/9------|
-------------------------------------------------------------------|
-------------------------------------------------------------------|

                                           pm    pm   pm  pm   pm pm
---------------------------------------------------------------------------|
--13----10-11----15-15p13----10-11---13-15----13----11---9---7---5---4-5-6-|
-----12-------------------12---------------12----10----8---6---4---3-------|
---------------------------------------------------------------------------|
---------------------------------------------------------------------------|
---------------------------------------------------------------------------|

--5p4p3---------/5-3---------10-8-7----------------------|
---------3-5-6-------3-5-6-----------8---6---------------|
---------------------------------------7----7--5------7--|
-------------------------------------------------7/9-----|
---------------------------------------------------------|
---------------------------------------------------------|

                                           pm    pm   pm  pm   pm pm
---------------------------------------------------------------------------|
--13----10-11-----15--13-----10-11---13-15----13----11---9---7---5---3---1-|
-----12-------------------12---------------12----10----8---6---4---2---0---|
---------------------------------------------------------------------------|
---------------------------------------------------------------------------|
---------------------------------------------------------------------------|

--------------5--7-8--------------------------------|
-------------5--------9----10-----------------------|
------------5-----------------9----------7/9--9\7---|
--3-2-------7-------------------10-7-10-------------|
------------7---------------------------------------|
---------5------------------------------------------|

--------10--12-13p12----------------------5-----5-7-8----|
------10-------------14---15---------12---5----5------9--|
----10----------------------14----13------5---7----------|
----12------------------------15--14------7---7----------|
----12----------------------------14------7---5----------|
-10-------------------------------12------5--5-----------|

-----------------------------------10--12-13p12----------------------5--|
--10-----------------------------10-------------14---15---------12---5--|
-----9----------7/9--9\7-------10----------------------14----13------5--|
-------10-7-10-----------------12------------------------15--14------7--|
-------------------------------12----------------------------14------7--|
----------------------------10-------------------------------12------5--|

-12-11-10-9-8----------/10-8----------7-8-------------------------|
--------------8-10-11--------8-10-11------8-10-10b11--8--------8--|
--------------------------------------------------------10-8h9----|
------------------------------------------------------------------|
------------------------------------------------------------------|
------------------------------------------------------------------|

--13---------15-13---------13-15----13----11---9---7---5---3---1--0-|
----13-15-16------13-15-16-------13----11----9---7---5---3---1----0-|
------------------------------------------------------------------0-|
------------------------------------------------------------------2-|
------------------------------------------------------------------2-|
------------------------------------------------------------------0-|

-----0--2--3------0---0-------------0--|
---0---------4----0-----0-----------1--|
--0---------------0-------0---0--4--2--|
--2---------------2---------2-------2--|
--2---------------2-----------------0--|
0-----------------0-----------------0--|

---------5--7--8\----------------------------------0--|
--------5---------9-----10----------7-----------0-----|
------5--------------------9-----8------------0-------|
------7----------------------10--9----------2---------|
------7--------------------------9--------2-----------|
----5----------------------------7------0-------------|
Добавлено: 11.03.2012
Другие материалы по этой песне:
  • Аккорды и текст

Страница создана 11.03.2012
http://primanota.ru/ventures/harlem-nocturne-chords.htm
Привет, Гость.
Предлагаем пройти революционный курс по гитаре.
Подарок от PrimaNota.Ru, забирай!