PrimaNota.ru - самый крупный в мире бесплатный архив песенных текстов, аккордов, табулатур и нот


Unknown - Enzos Song - таба, видео

Регистрация Запомнить меня
Войти через:  Facebook Google Twitter Vk Yandex Mail.ru

Unknown - Enzos Song - таба, видео

Печатать
Просмотров: 59
(/) Slide Up  (\) Slide Down  (h) Hammer On  (p) Pull Off  (b) Bend (r) Release (v) Vibrato

Capo Fret 4

Stave 1:

E|--1--1--1--1--1p0--0-----------0------------------------------------------------
B|--3-------------------3-----0-----------1-----------------1-----0h1--1h3--1--0--
G|--2----------------------2-----------2-----------------0------------------------
D|----------------------------------2-----------------2---------------------------
A|-------------------------------0-----------0--2--3-----------2------------------
E|--------------------------------------------------------------------------------

Repeat above part 4 Times


Ending:

E|--1--1--1--1--1p0--0-----------0--------------------------------------------------------------------
B|--3-------------------3-----0-----------1-----------------------------------1-----------------------
G|--2----------------------2-----------2-----------------0--------0--------2-----------------0--------
D|----------------------------------2-----------------2--------0--------2-----------------2--------0--
A|-------------------------------0-----------0--2--3--------2--------0-----------0--2--3--------2-----
E|----------------------------------------------------------------------------------------------------

E|-----------------
B|--------------1--
G|--0--------2-----
D|--------2--------
A|-----0-----------
E|-----------------

To hear how its suppose to sound (roughly) go to https://www.youtube.com/watch?v=WtPqMAc-Aas
Добавлено: 13.04.2016
Другие материалы по этой песне:
  • Аккорды и текст

Страница создана 13.04.2016
http://primanota.ru/unknown/enzos-song-chords.htm
Привет, Гость.
Предлагаем пройти революционный курс по гитаре.
Подарок от PrimaNota.Ru, забирай!