PrimaNota.ru - самый крупный в мире бесплатный архив песенных текстов, аккордов, табулатур и нот


Underoath - Returning Empty Handed - текст песни, таба, видео

Регистрация Запомнить меня
Войти через:  Facebook Google Twitter Vk Yandex Mail.ru

Underoath - Returning Empty Handed - текст песни, таба, видео

Печатать
Просмотров: 211
Уроки эстрадного вокала в Санкт-Петербурге
-----------------------------------------------------------------------------
                             Returning Empty Handed - Underoath
-----------------------------------------------------------------------------
Tabbed by: Melvo101
Email:StandinO101@aol.com

Tuning: Dropped D  I tabbed this right up to the interlude

Guitar 1 Intro

e|-------------------------------------------------------------------------|
B|-------------------------------------------------------------------------|
G|-------------------------------------------------------------------------|
D|-0~---0~---0~---0~-------------------------------------------------------|
A|-0~---0~---0~---0~-------------------------------------------------------|
E|-0~---0~---0~---0~-------------------------------------------------------|

Guitar 2 Intro

e|-----------------------------------------------------------------------|
B|-----------------------------------------------------------------------|
G|-----------------------------------------------------------------------|
D|-0~---2~---5~---3~-----------------------------------------------------|
A|-----------------------------------------------------------------------|
E|-----------------------------------------------------------------------|

Guitar 1 "How peacful it feels, how it feels..."

e|-----------------------------------------------------------------------|
B|-----------------------------------------------------------------------|
G|-----------------------------------------------------------------------|
D|-8\-0--0---8\-0--0--0---8\-0--0---7-------2-3~-------------------------|
A|-8\-0--0---8\-0--0--0---8\-0--0-----8-5-7-2-3~-------------------------|
E|-8\-0--0---8\-0--0--0---8\-0--0--8--------2-3~-------------------------|

e|-----------------------------------------------------------------------|
B|--------------------------------------------6--------------------------|
G|--------------------------------------------9--------------------------|
D|-8\0-0---8\-0--0--0---8\0--0---8\-0--0--0------------------------------|
A|-8\0-0---8\-0--0--0---8\0--0---8\-0--0--0------------------------------|
E|-8\0-0---8\-0--0--0---8\0--0---8\-0--0--0------------------------------|

Guitar 2 (this is played while guitar one is doing the above, listen carefully) this is 
with the "how peacful it feels"

e|-----------------------------------------------------------------------|
B|-----------------------------------------------------------------------|
G|-----------------------------------------------------------------------|
D|-----------------------------------------------------------------------|
A|---5h7-3p0-------------------------------------------------------------|
E|-----------------------------------------------------------------------|

Then Guitar 1 and 2 play this together 2 times "A transparent, scenery..."

e|-----------------------------------------------------------------------|
B|---------------------------------------9-------------------------------|
G|---------------------------------------6-------------------------------|
D|-8\-0-0---8\-0-0-0---8\-0-0---8\-0-0-0---------------------------------|
A|-8\-0-0---8\-0-0-0---8\-0-0---8\-0-0-0---------------------------------|
E|-8\-0-0---8\-0-0-0---8\-0-0---8\-0-0-0---------------------------------|

Guitar 1 small interlude thing

e|-12---13---12---13---12---13---12---13---12---13---12---13-------------|
B|---10---10---10---10---10---10---10---10---10---10---10---10-----------|
G|-----------------------------------------------------------------------|
D|-----------------------------------------------------------------------|
A|-----------------------------------------------------------------------|
E|-----------------------------------------------------------------------|

Guitar 2 small interlude thing

e|-1/12-1/12-1/12-1/12-1/12-1--------------------------------------------|
B|-----------------------------------------------------------------------|
G|-----------------------------------------------------------------------|
D|-----------------------------------------------------------------------|
A|-----------------------------------------------------------------------|
E|-----------------------------------------------------------------------|

Guitars 1 and 2

e|-----------------------------------------------------------------------|
B|-----------------------------------------------------------------------|
G|-----------------------------------------------------------------------|
D|-5-x8--3-x8------------------------------------------------------------|
A|-5-----3---------------------------------------------------------------|
E|-5-----3---------------------------------------------------------------|

Guitars 1 and 2 play this 2 times "Now my eyes flash with white..."

e|-----------------------------------------------------------------------|
B|----4-----4-----------4-----4------------------------------------------|
G|----7-----7-----------7-----7------------------------------------------|
D|-0----5-7---5h7-3h5-0---5-7---5h7-3------------------------------------|
A|-0----5-7---5h7-3h5-0---5-7---5h7-3------------------------------------|
E|-0----5-7---5h7-3h5-0---5-7---5h7-3------------------------------------|

Guitars 1 and 2 "Here again and again"

e|-----------------------------------------------------------------------|
B|-----------------------------------------------------------------------|
G|-9-x16-5-x8-12-x8------------------------------------------------------|
D|-7-----3----10---------------------------------------------------------|
A|-7-----3----10---------------------------------------------------------|
E|-7-----3----10---------------------------------------------------------|

Guitars 1 and 2 played 2 times "The floor is more fitting for"

e|-----------------------------------------------------------------------|
B|-----------------------------------------------------------------------|
G|-----------------------------------------------------------------------|
D|-0----0-0----0--0---0-0-0-0---------0--0-------------------------------|
A|-0----0-0----0--0---0-0-0-0-(fast)--0--0-------------------------------|
E|-0----0-0----0--0---0-0-0-0---------0--0-------------------------------|

Guitars 1 and 2 "Face, here again, here again, this is getting old..."

e|-----------------------------------------------------------------------|
B|-6~--------------------------------------------------------------------|
G|-9~--x4----------------------------------------------------------------|
D|-0~--------------------------------------------------------------------|
A|-0~--------------------------------------------------------------------|
E|-0~--------------------------------------------------------------------|

Guitar 1 Breakdown part 2 played 2 times "here again, here again, im being watched..."

e|-----------------------------------------------------------------------|
B|-----------------------------------------------------------------------|
G|-----------------------------------------------------------------------|
D|-0----0-0----0--0---0-0-0-0---------0--0-------------------------------|
A|-0----0-0----0--0---0-0-0-0-(fast)--0--0-------------------------------|
E|-0----0-0----0--0---0-0-0-0---------0--0-------------------------------|

Guitar 2 Breakdown part 2 played 4 times. listen careful trust me it works

e|-----------------------------------------------------------------------|
B|-----------------------------------------------------------------------|
G|-----------------------------------------------------------------------|
D|-----------------------------------------------------------------------|
A|---5h7-3p0-8h7--5h7p0-3p0-8p0------------------------------------------|
E|-----------------------------------------------------------------------|

Guitars 1 and 2 playd 2 times "paranioa!!!"

e|-----------------------------------------------------------------------|
B|-----------------------------------------------------------------------|
G|-----------------------------------------------------------------------|
D|-0-0----0-0--0-0-------------------------------------------------------|
A|-0-0----0-0--0-0-------------------------------------------------------|
E|-0-0----0-0--0-0-------------------------------------------------------|

Then the interlude comes but i didn't tab it, but i will soon.

I know this is right, its my favorite song and i listen to it all the time.

ENJOY!

| /  slide up
| \  slide down
| h  hammer-on
| p  pull-off
| ~  vibrato
| +  harmonic
| x  Mute note
==========================================================================
Добавлено: 31.03.2012
Другие материалы по этой песне:

Страница создана 31.03.2012
http://primanota.ru/underoath/returning-empty-handed-chords.htm
Привет, Гость.
Предлагаем пройти революционный курс по гитаре.
Подарок от PrimaNota.Ru, забирай!