PrimaNota.ru - самый крупный в мире бесплатный архив песенных текстов, аккордов, табулатур и нот


U2 - Zooropa Live 360 Tour - бас-таба, видео

Регистрация Запомнить меня
Войти через:  Facebook Google Twitter Vk Yandex Mail.ru

U2 - Zooropa Live 360 Tour - бас-таба, видео

Печатать
Просмотров: 138
ARTIST: U2

TITLE: ZOOROPA (LIVE 360 TOUR)



BY: LUCA GEMMA



Tune Down 1/2 step


INTRO THE EDGE

G|-----------------|-----------------|-----------------|-----------------|
D|-----------------|-----------------|-----------------|-----------------|
A|-----------------|-----------------|-----------------|-----------------|
E|-----------------|-----------------|-----------------|-----------------|

G|-----------------|-----------------|-----------------|-----------------|
D|-----------------|-----------------|-----------------|-----------------|
A|-----------------|-----------------|-----------------|-----------------|
E|-----------------|-----------------|-----------------|-----------------|

INTRO

G|-----------------|-----------------|-----------------|-----------------|
D|-----------------|-----------------|-----------------|-----------------|
A|2-2-2--02-22---0-|2-2-2--02-22---0-|5-5-5--35-55---3-|5-5-5--35-55---3-|
E|-------------2---|-------------2---|-------------5---|-------------5---|

G|-----------------|-----------------|-----------------|-----------------|
D|-----------------|-----------------|-----------------|-----------------|
A|2-2-2--02-22---0-|2-2-2--02-22---0-|5-5-5--35-55---3-|5-5-5--35-55---3-|
E|-------------2---|-------------2---|-------------5---|-------------5---|


1° VERSE

G|-----------------|-----------------|-----------------|-----------------|
D|-----------------|-----------------|-----------------|-----------------|
A|7-7-7--57-77---5-|7-7-7--57-77---5-|7-7-7--57-77---5-|7-7-7--57-77---5-|
E|-------------7---|-------------7---|-------------7---|-------------7---|

G|-----------------|-----------------|-----------------|-----------------|
D|-----------------|-----------------|-----------------|-----------------|
A|9-9-9--79-99---7-|5-5-5--53-55---3-|9-9-9--79-99---7-|5-5-5--53-55---3-|
E|-------------9---|-------------5---|-------------9---|-------------5---|

2° VERSE

G|-----------------|-----------------|-----------------|-----------------|
D|-----------------|-----------------|-----------------|-----------------|
A|7-7-7--57-77---5-|7-7-7--57-77---5-|7-7-7--57-77---5-|7-7-7--57-77---5-|
E|-------------7---|-------------7---|-------------7---|-------------7---|

G|-----------------|-----------------|-----------------|-----------------|
D|-----------------|-----------------|-----------------|-----------------|
A|9-9-9--79-99---7-|5-5-5--53-55---3-|9-9-9--79-99---7-|5-5-5--53-55---3-|
E|-------------9---|-------------5---|-------------9---|-------------5---|

G|-----------------|-----------------|-----------------|-----------------|
D|-----------------|-----------------|-----------------|-----------------|
A|2-2-2--02-22---0-|2-2-2--02-22---0-|5-5-5--35-55---3-|5-5-5--35-55---3-|
E|-------------2---|-------------2---|-------------5---|-------------5---|

G|-----------------|-----------------|-----------------|-----------------|
D|-----------------|-----------------|-----------------|-----------------|
A|2-2-2--02-22---0-|2-2-2--02-22---0-|5-5-5--35-55---3-|5-5-5--35-55---3-|
E|-------------2---|-------------2---|-------------5---|-------------5---|



BREAK

G|-----------------|-----------------|-----------------|-----------------|
D|-----------------|-----------------|-----------------|-----------------|
A|-----------------|-----------------|-----------------|----------------5|
E|-----------------|-----------------|-----------------|-----------------|

G|-----------------|-----------------|-----------------|-----------------|
D|-----------------|-----------------|-----------------|-----------------|
A|7-7-----5---5-77-|----------------5|7-7-----5---5-77-|----------------5|
E|-----7-----7-----|-----------------|-----7-----7-----|-----------------|

G|-----------------|-----------------|-----------------|-----------------|
D|-----------------|-----------------|-----------------|-----------------|
A|7-7-----5---5-77-|----------------5|7-7-----5---5-77-|----------------5|
E|-----7-----7-----|-----------------|-----7-----7-----|-----------------|

G|-----------------|-----------------|-----------------|-----------------|
D|-----------------|-----------------|-----------------|-----------------|
A|7-7-----5---5-77-|----------------5|7-7-----5---5-77-|----------------5|
E|-----7-----7-----|-----------------|-----7-----7-----|-----------------|

G|-----------------|-----------------|-----------------|-----------------|
D|-----------------|-----------------|-----------------|-----------------|
A|7-7-----5---5-77-|----------------5|7-7-----5---5-77-|----------------5|
E|-----7-----7-----|-----------------|-----7-----7-----|-----------------|

G|-----------------|-----------------|-----------------|-----------------|
D|-----------------|-----------------|-----------------|-----------------|
A|7-7-----5---5-77-|----------------5|7-7-----5---5-77-|----------------5|
E|-----7-----7-----|-----------------|-----7-----7-----|-----------------|

G|-----------------|-----------------|-----------------|-----------------|
D|-----------------|-----------------|-----------------|-----------------|
A|7-7-----5---5-77-|----------------5|7-7-----5---5-77-|----------------5|
E|-----7-----7-----|-----------------|-----7-----7-----|-----------------|

G|-----------------|-----------------|-----------------|-----------------|
D|-----------------|-----------------|-----------------|-----------------|
A|7-7-----5---5-77-|----------------5|7-7-----5---5-77-|----------------5|
E|-----7-----7-----|-----------------|-----7-----7-----|-----------------|

G|-----------------|-----------------|-----------------|-----------------|
D|-----------------|-----------------|-----------------|-----------------|
A|7-7-----5---5-77-|----------------5|7-7-----5---5-77-|----------------5|
E|-----7-----7-----|-----------------|-----7-----7-----|-----------------|

G|-----------------|-----------------|-----------------|-----------------|
D|-----------------|-----------------|-----------------|-----------------|
A|7-7-----5---5-77-|----------------5|7-7-----5---5-77-|----------------5|
E|-----7-----7-----|-----------------|-----7-----7-----|-----------------|

G|-----------------|-----------------|-----------------|-----------------|
D|-----------------|-----------------|-----------------|-----------------|
A|7-7-----5---5-77-|----------------5|7-7-----5---5-77-|----------------5|
E|-----7-----7-----|-----------------|-----7-----7-----|-----------------|


G|-----------------|-----------------|
D|-----------------|-----------------|
A|7-7-----5---5-77-|-----------------|
E|----7------7-----|-----------------|



Question, Comments, Corrections shall be sent to gemma.luca@gmail.com
Добавлено: 01.06.2012
Другие материалы по этой песне:
  • Аккорды и текст

Страница создана 01.06.2012
http://primanota.ru/u2/zooropa-live-360-tour-chords.htm
Привет, Гость.
Предлагаем пройти революционный курс по гитаре.
Подарок от PrimaNota.Ru, забирай!