PrimaNota.ru - самый крупный в мире бесплатный архив песенных текстов, аккордов, табулатур и нот


U2 - Kite Live - таба, видео

Регистрация Запомнить меня
Войти через:  Facebook Google Twitter Vk Yandex Mail.ru

U2 - Kite Live - таба, видео

Печатать
Просмотров: 158
Hello! This is my first tab, so I hope everything is okay.

Tuning: Standard  (If you want to match the live version, move the whole solo down one 
or take your guitar a half step down.)

One more important fact: My electric does not have a high e string at the moment!!! So I 
this mostly using the B string instead of the e. I TRIED to figure out some of the 
high parts on my acoustic, but it was difficult. I tried my best, though. Sorry for the inconvenience!


e--------------------------------------------------------------------------|
B--12/14--17/16------------12/14--17/16------------------------------------|
G---------------16/14-------------------16/13---11h13--11-9----------------|
D--------------------------------------------------------------------------|
A--------------------------------------------------------------------------|
E--------------------------------------------------------------------------|

Riff 1
e--------------------------------------------------------------------------|
B--10-10p9-9-9-9-9-9-9-9-9p7-7-7-7-7-7-7-7-7/5-5-5-------------------------|
G--9--9--9-9-9-9-9-9-9-9-9-8-8-8-8-8-8-8-8-8/6-6-6-4-6-4-6-----------------|
D--9--9--9-9-9-9-9-9-9-9-9-9-9-9-9-9-9-9-9-9/7-7-7-------------------------|
A--------------------------------------------------------------------------|
E--------------------------------------------------------------------------|


Riff 2
e--------------------12--12--12--17p16-16-16-16-16-16-16-16-16/14-14-14-14-14-14-14-14-14/12-12-12--|
B--14-14-12-12-14-14---14--14----17-17-17-17-17-17-17-17-17-17/16-16-16-16-16-16-16-16-16/14-14-14--|
G--------------------------------18-16-16-16-16-16-16-16-16-16/16-16-16-16-16-16-16-16-16/14-14-14--|
D---------------------------------------------------------------------------------------------------|
A---------------------------------------------------------------------------------------------------|
E---------------------------------------------------------------------------------------------------|


e-----------------------------11-11-11/12-12-12-12-12-12-12-12-12/14-14-14-14/12-12-12-12/11-11-11-11/12-12-12-12/11-11-11-11/9-9-9-9------------------|
B--14-14-14p12-12--12-14-14-14-------------------------------------------------------------------------------------------------------12-12-12-12/9-9-9-|
G------------------------------------------------------------------------------------------------------------------------------------------------------|
D------------------------------------------------------------------------------------------------------------------------------------------------------|
A------------------------------------------------------------------------------------------------------------------------------------------------------|
E------------------------------------------------------------------------------------------------------------------------------------------------------|

e--/14-14-14/12-12-12-12/11-11-11-11/12-12-12-12-12/11-11-11-11/12-12-12-12/14-14-14-14/16-16-16-16/14-14-14-14/12-12-12-12/11-11-11-11/12-12-12-12/-|
B----------------------------------------------------------------------------------------------------------------------------------------------------|
G----------------------------------------------------------------------------------------------------------------------------------------------------|
D----------------------------------------------------------------------------------------------------------------------------------------------------|
A----------------------------------------------------------------------------------------------------------------------------------------------------|
E----------------------------------------------------------------------------------------------------------------------------------------------------|

e--/11-11-11-11/---------------------------------------------------------------------------------------------------------------------|
B---------------12-12-12/9-9-9-9-9b10-7--7-7-----------------------------------------------------------------------------------------|
G--------------------------------------9-----9-9-------------------------------------------------------------------------------------|
D------------------------------------------------11-11-11-9-11-11-9-11-9-11-9-11-9-11------------------------------------------------|
A------------------------------------------------------------------------------------------------------------------------------------|
E------------------------------------------------------------------------------------------------------------------------------------|

Riff 1 X2 with a little bit of improv

Hopefully everyone can figure this out alright, and I hope this was helpful!! If I made 
mistakes, hopefully you can correct them yourselves. Cheers!!
Добавлено: 21.04.2012
Другие материалы по этой песне:
  • Аккорды и текст

Страница создана 21.04.2012
http://primanota.ru/u2/kite-live-chords.htm
Привет, Гость.
Предлагаем пройти революционный курс по гитаре.
Подарок от PrimaNota.Ru, забирай!