PrimaNota.ru - самый крупный в мире бесплатный архив песенных текстов, аккордов, табулатур и нот


Ty Segall - For Those Who Weep - таба, видео

Регистрация Запомнить меня
Войти через:  Facebook Google Twitter Vk Yandex Mail.ru

Ty Segall - For Those Who Weep - таба, видео

Печатать
Просмотров: 91
-------------------------------------------------------------------------------
                             SONG NAME - Band Name
-------------------------------------------------------------------------------
Tabbed by:person X
E-mail:bellm1334@gmail.com

This is my first tab ever so if I get anything wrong please email me and i'll 
correct it.  It's a pretty simple song from one of the best dudes in the industry
and when played right is actually pretty powerful

Tuning:standard
the chords are simple enough and follow mostly G-Bb-Em-C

      G      Bb     Em      C

e|----3-------2------0-------3--------------------------------------------------|
B|----3-------3------0-------5--------------------------------------------------|
G|----4-------4------0-------5--------------------------------------------------|
D|----5-------4------2-------5--------------------------------------------------|
A|----5-------2------2-------3--------------------------------------------------|
E|----3-------2------0-------3--------------------------------------------------|

Then eventually gets to an A then back to a C
         
         A        C

e|-------5--------3------------------------------------------------------------|
B|-------5--------5------------------------------------------------------------|
G|-------6--------5------------------------------------------------------------|
D|-------7--------5------------------------------------------------------------|
A|-------7--------3------------------------------------------------------------|
E|-------5--------3------------------------------------------------------------|

After the part with the A there is a second guitar that plays this

e|---------------------------------------------------------------------------|
B|---------------------------------------------------------------------------|
G|---------------------------------------------------------------------------|
D|---------------------------------------------------------------------------|
A|-----------5--------5----------2--3--2--3--2-------------------------------|
E|----3---3-----2--2------0---0----------------------------------------------|

Towards the end of the song guitar 2 comes back with this

e|--------10---10---10---10---10---10----8-7---------------------------------|
B|---8----------------------------------------8------------------------------|
G|---------------------------------------------------------------------------|
D|---------------------------------------------------------------------------|
A|---------------------------------------------------------------------------|
E|---------------------------------------------------------------------------|

And thats it! The chords never stop throughout the song and once you learn the chord progression its really 
fun to play

enjoy!!!!!

Добавлено: 30.04.2015
Другие материалы по этой песне:
  • Аккорды и текст

Страница создана 30.04.2015
http://primanota.ru/ty-segall/for-those-who-weep-chords.htm
Привет, Гость.
Предлагаем пройти революционный курс по гитаре.
Подарок от PrimaNota.Ru, забирай!