PrimaNota.ru - самый крупный в мире бесплатный архив песенных текстов, аккордов, табулатур и нот


Tristania - Sirene - таба, видео

Регистрация Запомнить меня
Войти через:  Facebook Google Twitter Vk Yandex Mail.ru

Tristania - Sirene - таба, видео

Печатать
Просмотров: 187
Авторы музыки: Einar Moen, Morten Veland

-------------------------------------------------------------------------------
                             SIRENE - Tristania
-------------------------------------------------------------------------------
Tabbed by: Kenabe
Email: Kberge01@hotmail.com

Tuning: EADGBe

e|-------------------------------|
B|-----5-3-----------------0h1---|
G|-0-2-----5-4-5-4-2-0-0-------2-|
D|-----------------------2-------|
A|-0-0---------3-----------------|
E|---------------------0---------|

e|---------------------------|
B|-----5-3-------------------|
G|-0-2-----5-4-5-4-2-0-2-4-2-|
D|---------------------------|
A|---0---------3---------2-0-|
E|---------------------3-----|

This is my first tab, but should be quite accurate.
Send a mail to Kberge01@hotmail.com for any comments or corrections.
Enjoy!
Добавлено: 25.04.2012
Другие материалы по этой песне:

Страница создана 07.04.2012
http://primanota.ru/tristania/sirene-chords.htm
Привет, Гость.
Предлагаем пройти революционный курс по гитаре.
Подарок от PrimaNota.Ru, забирай!