- самый крупный в мире бесплатный архив песенных текстов, аккордов, табулатур и нот

Trapt - Influence - текст песни, таба, видео

Регистрация Запомнить меня
Войти через:  Facebook Google Twitter Vk Yandex

Trapt - Influence - текст песни, таба, видео

Просмотров: 100
sry for the first tab from me (i didnt have time to finish and it's wrong so here its 
+ for the chords you could use full minor chords instead of power chords use whatever you 
sounds best :) )

intro(pre chorus):
e ------------------------------|
b ------------------------------|
g ------------------------------|
D 7-7-7-/-9-7-7-7-/-9-9-9-\-4-4-|  3x
A 5-5-5-/-7-5-5-5-/-7-7-7-\-2-2-|
E ------------------------------|

e ------------------------------|
b ------------------------------|
g ------------(11)--------------|
D 7-7-7-7-/-9-(12)--------------|  1x ( ) means change from pre chorus to
A 5-5-5-5-/-7-(10)--------------|         chorus strumm as many times as
E ------------------------------|         needed

verse and it's the same for the part after the first chorus(interlude):

e ---------------------------------|
b ---------------------------------|
g ------------------------11----11-|
D ---4----4------9-----12----12----|   could be played with reverb? not sure
A -2---/5---5-/7---/10-------------|   about that :)
E ---------------------------------|

          chorus part                 1. time(rpt. chr. part)  2. time
e -------|-------|-------|-------|---|-----------------------|----------|
b -------|-------|-------|-------|---|-----------------------|----------|
g ---/11-|---/11-|---/11-|---/11-|---|-----------------------|----------|
D -7-/12-|-7-/12-|---/12-|---/12-|-4-|----7---7--------------|----------|
A -5-/10-|-5-/10-|-5-/10-|-5-/10-|-2-|--5-5-5-5-5------------|-5--------|
E -------|-------|-3-----|-3-----|---|--3---3---3------------|-3--------|

strumming is easy to find out so go on and do it for yourself! :)


is easy to
find out,
but only
for PM


e  ---|---||-------|-------||
b  ---|---||-------|-------||
g  ---|---||-------|-------||
D  -4-|---||-4-(4)-|-------||  ( ) means played with delay
A  -2-|-5-||-2-----|-5-(5)-||
E  ---|-3-||-------|-3-----||

I think PM part is not neccessary, but play what you think sounds correct with or 
the first part! :)


played around the 9th till 16th fret of 5 string (A)
kind of hard to find out because of the effect used, but it's a pretty easy thing, 
found my way of playing it either :)
Добавлено: 05.09.2013
Другие материалы по этой песне:
  • Аккорды и текст

Страница создана 23.04.2012
Привет, Гость.
Предлагаем пройти революционный курс по гитаре.
Подарок от PrimaNota.Ru, забирай!