PrimaNota.ru - самый крупный в мире бесплатный архив песенных текстов, аккордов, табулатур и нот


Trapt - Waiting - текст песни, таба, бас-таба, видео

Регистрация Запомнить меня
Войти через:  Facebook Google Twitter Vk Yandex Mail.ru

Trapt - Waiting - текст песни, таба, бас-таба, видео

Печатать
Просмотров: 236
Band- Trapt
Song- Waiting

Tuning - Drop D

Intro
----------------------------------------------------------------------------------------------------------|
---7*-----------------------------------------------------------------------------------------------------|
----------------------------------------------------------------------------------------------------------|
------------9-9-----9---9-----9-9----9-9-9-9--------13-13-----13--13------4-4-----4-4-4-4- Repeat(Chords--| x2
------------7-7-----7---7-----7-7----7-7-7-7--------11-11-----11--11------2-2-----2-2-2-2-----------------|
------------7-7-----7---7-----7-7----7-7-7-7--------11-11-----11--11------2-2-----2-2-2-2-----------------|

Verse (Main Riff)
-----------------------------------------------------------------------------------------------------|
-----------------------------------------------------------------------------------------------------|
----------------------9--------------------8----------------------6----------------------------------|
------------9-------------------9--------------------9-------------------------9---------------------| x7
-----------------------------------------------------------------------------------------------------|
-----------------------------------------------------------------------------------------------------|

-----------------------------------------------------------------------|
-----------------------------------------------------------------------|
-----------------6------------------8-----------------9----------------| x1  Back to Main Riff
----------9------------9--9--9---------9--9--9-------------------------|
-----------------------------------------------------------------------|
-----------------------------------------------------------------------|


Pre-Chorus
--------------------------------------------------------------------------------------------------------|
--------------------------------------------------------------------------------------------------------|
--------------------------------------------------------------------------------------------------------|
------------9-9-----9---9-----9-9----9-9-9-9--------13-13-----13--13------4-4-----4-4-4-4---------------|
------------7-7-----7---7-----7-7----7-7-7-7--------11-11-----11--11------2-2-----2-2-2-2---------------|
------------7-7-----7---7-----7-7----7-7-7-7--------11-11-----11--11------2-2-----2-2-2-2---------------|


Chorus (Let Notes Ring)
----------------------------------------------------------------------------------|
----------------------------------------------------------------------------------|
--------9------9------9-------9------8--------8-------8------8-------8------------|
----9------9------9-------9------9-------9-------9-------9-------9------9---------|
----------------------------------------------------------------------------------|
----------------------------------------------------------------------------------|

Chorus (Continued)
-----------------------------------------------------------------------------------------------------------|
-----------------------------------------------------------------------------------------------------------|
--------6-------6-------6-------6-----------------------------------------13--------13-------13--------13--|
----9-------9-------9-------9-------9-------9--------9--------9-------9--------9---------9---------9-------|
---------------------------------------11-------11-------11-------11---------------------------------------|
-----------------------------------------------------------------------------------------------------------|

Then

Verse(Main Riff) & Alt riff a few more times, the bridge is same,
Simon just pauses on different notes


Bridge
----------------------------------------------------------------------------------------------|
----------------------------------------------------------------------------------------------|
------------9---------------8-----------------6----------------------6-----------------6---7--|
-----9-------------9----------------9------------------9----9--------------9----9-------------|A Few Times
----------------------------------------------------------------------------------------------|
----------------------------------------------------------------------------------------------|

Then
-----------------------------------------------------------|
-----------------------------------------------------------|
-------------------------------------11-11-11-11-----------|
-------9--9----9----9-----9--9---9---9---9---9-------------| Few Times Also
-----------------------------------------------------------|
-----------------------------------------------------------|

Back To Pre-Chorus & Chorus
Pre-Chorus
-----------------------------------------------------------------------------------------------------|
-----------------------------------------------------------------------------------------------------|
-----------------------------------------------------------------------------------------------------|
------------9-9-----9---9-----9-9----9-9-9-9--------13-13-----13--13------4-4-----4-4-4-4------------|
------------7-7-----7---7-----7-7----7-7-7-7--------11-11-----11--11------2-2-----2-2-2-2------------|
------------7-7-----7---7-----7-7----7-7-7-7--------11-11-----11--11------2-2-----2-2-2-2------------|


Chorus (Let Notes Ring)
----------------------------------------------------------------------------------|
----------------------------------------------------------------------------------|
--------9------9------9-------9------8--------8-------8------8-------8------------|
----9------9------9-------9------9-------9-------9-------9-------9------9---------|
----------------------------------------------------------------------------------|
----------------------------------------------------------------------------------|

Chorus (Continued)
----------------------------------------------------------------------------------------------------------|
----------------------------------------------------------------------------------------------------------|
--------6-------6-------6-------6---------------------------------------13-------13-----13------13--------|
----9-------9-------9-------9-------9-------9-------9-------9-------9-------9-------9--------9------------|
----------------------------------------11------11------11-----11-----------------------------------------|
----------------------------------------------------------------------------------------------------------|
Добавлено: 12.07.2012
Другие материалы по этой песне:

Страница создана 23.06.2012
http://primanota.ru/trapt/waiting-chords.htm
Привет, Гость.
Предлагаем пройти революционный курс по гитаре.
Подарок от PrimaNota.Ru, забирай!