PrimaNota.ru - самый крупный в мире бесплатный архив песенных текстов, аккордов, табулатур и нот


Train - 50 Ways To Say Goodbye Trumpet - таба, видео

Регистрация Запомнить меня
Войти через:  Facebook Google Twitter Vk Yandex Mail.ru

Train - 50 Ways To Say Goodbye Trumpet - таба, видео

Печатать
Просмотров: 139
-------------------------------------------------------------------------------
                         50 WAYS TO SAY GOODBYE - Train
-------------------------------------------------------------------------------

Tuning: Standard

e|15-13-11-11-13-15-17-15-12-13-12-10-10-12-13-15-13-10-12-10-8-11-10-7-6-4-2-1-----|
B|------------------------------------------------------------------------------4---|
G|----------------------------------------------------------------------------------|
D|----------------------------------------------------------------------------------|
A|----------------------------------------------------------------------------------|
E|----------------------------------------------------------------------------------|

My heart is paralyzed
                                        
My head was oversized

I'll take the high road like I should

e|--------------------------|
B|-4-4-4-3---0--------------|
G|---------3---3-1----------|
D|------------------4-3-1---|
A|--------------------------|
E|--------------------------|

You said it's meant to be
                                
That it's not you, it's me
                                
You're leaving now for my own good


e|-4-4-4-3---|
B|-----------|
G|-----------|
D|-----------|
A|-----------|
E|-----------|

That's cool, but if my friends ask where you are I'm gonna say
                                    
She went down in an airplane
                                      
Fried getting suntanned
                              
Fell in a cement mixer full of quicksand
                          
Help me, help me, I'm no good at goodbyes!

e|-6-8-10-11-10-8-10-6---|
B|-----------------------|
G|-----------------------|
D|-----------------------|
A|-----------------------|
E|-----------------------|

She met a shark under water
                      
Fell and no one caught her
                               
I returned everything I ever bought her
                                
Help me, help me, I'm all out of lies
                        
And ways to say you died

e|15-13-11-11-13-15-17-15-12-13-12-10-10-12-13-15-13-10-12-10-8-11-10-7-6-4-2-1-----|
B|------------------------------------------------------------------------------4---|
G|----------------------------------------------------------------------------------|
D|----------------------------------------------------------------------------------|
A|----------------------------------------------------------------------------------|
E|----------------------------------------------------------------------------------|

My pride still feels the sting
                                        
You were my everything
                    
Some day I'll find a love like yours (a love like yours)
                                      
She'll think I'm Superman
                                         
Not super minivan
                              
How could you leave on Yom Kippur?

e|-4-4-4-3---|
B|-----------|
G|-----------|
D|-----------|
A|-----------|
E|-----------|

That's cool, but if my friends ask where you are I'm gonna say

She was caught in a mudslide
                                              
Eaten by a lion
                               
Got run over by a crappy purple Scion
                          
Help me, help me, I'm no good at goodbyes!

e|-6-8-10-11-10-8-10-6---|
B|-----------------------|
G|-----------------------|
D|-----------------------|
A|-----------------------|
E|-----------------------|

She dried up in the desert
                                        
Drowned in a hot tub
                           
Danced to death at an east side night club
                                
Help me, help me, I'm all out of lies
                                                                                        
And ways to say you died

e|-------------------------------------------------|
B|---4-----0-0---2---------------------------------|
G|-3---3-3-----1---1-1-3-3----4----1-3-1-----------|
D|--------------------------4---4--------4-3-1/4---|
A|-------------------------------------------------|
E|-------------------------------------------------|

I wanna live a thousand lives with you
                                                                       
I wanna be the one you're dying to love...
         
But you don't want to

                
That's cool, but if my friends ask where you are I'm gonna say
                
That's cool, but if my friends ask where you are I'm gonna say

                                   
She went down in an airplane
                                        
Fried getting suntanned
                               
Fell in a cement mixer full of quicksand
                          
Help me, help me, I'm no good at goodbyes!

e|-6-8-10-11-10-8-10-6---|
B|-----------------------|
G|-----------------------|
D|-----------------------|
A|-----------------------|
E|-----------------------|

She met a shark under water

                                     
Fell and no one caught her
                              
I returned everything I ever bought her
                                
Help me, help me, I'm all out of lies

                                    
She was caught in a mudslide
                                            
Eaten by a lion
                          
Got run over by a crappy purple Scion 
                           
Help me, help me, I'm no good at goodbyes!

e|-6-8-10-11-10-8-10-6---|
B|-----------------------|
G|-----------------------|
D|-----------------------|
A|-----------------------|
E|-----------------------|

She dried up in the desert
                                        
Drowned in a hot tub
                            
Danced to death at an east side night club
                                
Help me, help me, I'm all out of lies
                        
And ways to say you died

Добавлено: 10.11.2015
Вам также может быть интересно:
Другие материалы по этой песне:
  • Аккорды и текст

Страница создана 10.11.2015
http://primanota.ru/train/50-ways-to-say-goodbye-trumpet-chords.htm
Привет, Гость.
Предлагаем пройти революционный курс по гитаре.
Подарок от PrimaNota.Ru, забирай!