PrimaNota.ru - самый крупный в мире бесплатный архив песенных текстов, аккордов, табулатур и нот


Traditional - Uae National Anthem - таба, видео

Регистрация Запомнить меня
Войти через:  Facebook Google Twitter Vk Yandex Mail.ru

Traditional - Uae National Anthem - таба, видео

Печатать
Просмотров: 75
 Fmaj                      Fmaj                        Cmaj                 Cmaj        
E|------1----0--1---------|-1----3---5---5----3---1---|-0----1----3--3-----|-3----3----3--3---------|
B|-1-----------------1----|---------------------------|--------------------|-------------------1----|
G|------------------------|---------------------------|--------------------|------------------------|
D|------------------------|---------------------------|--------------------|------------------------|
A|------------------------|---------------------------|--------------------|------------------------|
E|------------------------|---------------------------|--------------------|------------------------|

  Cmaj                        Fmaj                        Bbmaj       Cmaj              
E|-3----1--3---5---6----3----|-5----3--5---7---8----1----|-3----6----5----3------0---|
B|---------------------------|---------------------------|-------------------3-------|
G|---------------------------|---------------------------|---------------------------|
D|---------------------------|---------------------------|---------------------------|
A|---------------------------|---------------------------|---------------------------|
E|---------------------------|---------------------------|---------------------------|

  Fmaj                 Fmaj         Bbmaj            Bbmaj            Cmaj
E|-1----1----1--13----|-13---13---12-10---10---8--|-6----6----5--3---0--1--3--5--6--8--|
B|--------------13----|---------------------------|------------------------------------|
G|--------------14----|---------------------------|------------------------------------|
D|--------------15----|---------------------------|------------------------------------|
A|--------------12----|---------------------------|------------------------------------|
E|--------------------|---------------------------|------------------------------------|

  Cmaj                        Fmaj                                 Bbmaj               
E|-12---12---10-8----8----6--|-5----5----3--1---5--6--8--10-12-13-|-3----5----6----3----|
B|---------------------------|------------------------------------|---------------------|
G|---------------------------|------------------------------------|---------------------|
D|---------------------------|------------------------------------|---------------------|
A|---------------------------|------------------------------------|---------------------|
E|---------------------------|------------------------------------|---------------------|

  Fmaj      Bbmaj        Bbmaj                            Fmaj 
E|-5----6----8----10---|-12--8---10--13--12--8---10--12--|-13--13-13-13--13--13--13--13--13--|
B|---------------------|---------------------------------|-----------------------------------|
G|---------------------|---------------------------------|-----------------------------------|
D|---------------------|---------------------------------|-----------------------------------|
A|---------------------|---------------------------------|-----------------------------------|
E|---------------------|---------------------------------|-----------------------------------|

  Fmaj                     Fmaj                        Cmaj                 Cmaj 
E|------1----0--1---------|-1----3---5---5----3---1---|-0----1----3--3-----|-3----3----3--3---------|
B|-1-----------------1----|---------------------------|--------------------|-------------------1----|
G|------------------------|---------------------------|--------------------|------------------------|
D|------------------------|---------------------------|--------------------|------------------------|
A|------------------------|---------------------------|--------------------|------------------------|
E|------------------------|---------------------------|--------------------|------------------------|

  Cmaj                        Fmaj                        Bbmaj
E|-3----1--3---5---6----3----|-5----3--5---7---8----1----|-3----6----5----3------0---|
B|---------------------------|---------------------------|-------------------3-------|
G|---------------------------|---------------------------|---------------------------|
D|---------------------------|---------------------------|---------------------------|
A|---------------------------|---------------------------|---------------------------|
E|---------------------------|---------------------------|---------------------------|

  Fmaj
E|-1----1----1--13----|
B|--------------13----|
G|--------------14----|
D|--------------15----|
A|--------------12----|
E|--------------------|






Добавлено: 26.05.2016
Другие материалы по этой песне:
  • Аккорды и текст

Страница создана 26.05.2016
http://primanota.ru/traditional/uae-national-anthem-chords.htm
Привет, Гость.
Предлагаем пройти революционный курс по гитаре.
Подарок от PrimaNota.Ru, забирай!