PrimaNota.ru - самый крупный в мире бесплатный архив песенных текстов, аккордов, табулатур и нот


Traditional - Santa Lucia - текст песни, бас-таба, видео

Регистрация Запомнить меня
Войти через:  Facebook Google Twitter Vk Yandex Mail.ru

Traditional - Santa Lucia - текст песни, бас-таба, видео

Печатать
Просмотров: 174
Уроки эстрадного вокала в Санкт-Петербурге
Santa Lucia - for bass guitar (Italian trad.)
Transposed to lowest possible

G|------------------------|-----------------------|------------------------|-----------------------|
D|------------------0-----|-0---------------------|------------------------|-----------------------|
A|-0-------0--------------|-------4-----4---------|------------------2-----|-2-----0-----0---------|
E|------------------------|-----------------------|-3-------3--------------|-----------------------|


G|-------------------------|-----------------------|-------------------------|-------------------|
D|-------------------------|-----------------------|-------------------------|-------------------|
A|---------2-------0-------|-0---------------------|-------------------------|-2-------0---------|
E|-2-----------------------|-------4-----3---------|-3-------2-------0-------|-------------------|


G|------------------------|-----------------------|------------------------|-----------------------|
D|------------------0-----|-0---------------------|------------------------|-----------------------|
A|-0-------0--------------|-------4-----4---------|------------------2-----|-2-----0-----0---------|
E|------------------------|-----------------------|-3-------3--------------|-----------------------|


G|-------------------------|-----------------------|-------------------------|-------------------|
D|-------------------------|-----------------------|-------------------------|-------------------|
A|---------2-------0-------|-0---------------------|-------------------------|-2-------0---------|
E|-2-----------------------|-------4-----3---------|-3-------2-------0-------|-------------------|


G|-------------------------|-----------------------|-------------------------|-----------------------|
D|-4-------2-------0-------|-------------2---------|-2-------0---------------|-------------0---------|
A|-------------------------|-4-----2---------------|-----------------2-------|-------0---------------|
E|-------------------------|-----------------------|-------------------------|-4---------------------|


G|-------------------------------------|-----------------------|------------------------|
D|-4-----0-----0-----------------------|-------2-----2---------|-2-------4--------2-----|
A|-------------------0-----0-----------|-----------------------|------------------------|
E|-------------------------------2-----|-3---------------------|------------------------|


G|-------------------|
D|-2-------0---------|
A|-------------------|
E|-------------------|
Добавлено: 25.05.2016
Другие материалы по этой песне:

Страница создана 01.03.2012
http://primanota.ru/traditional/santa-lucia-chords.htm
Привет, Гость.
Предлагаем пройти революционный курс по гитаре.
Подарок от PrimaNota.Ru, забирай!