PrimaNota.ru - самый крупный в мире бесплатный архив песенных текстов, аккордов, табулатур и нот


Traditional - Suddhosi Buddhosi - таба, видео

Регистрация Запомнить меня
Войти через:  Facebook Google Twitter Vk Yandex Mail.ru

Traditional - Suddhosi Buddhosi - таба, видео

Печатать
Просмотров: 53
------------------------------------------------------
            Suddhosi Buddhosi - Traditional
------------------------------------------------------
Tabbed by: MarkGNYC
Tuning: Standard

  Em        
e|----------0-|
B|--------0---|
G|------0-----|
D|----2-------|
A|--2---------|
E|0-----------|
            Su-
  Em           Am            D           Em
e|----------0-|--------0---|------2-----|----------0-|
B|--------0---|------1---1-|----3---3---|--------0---|
G|------0-----|----2-------|--2-------2-|------0-----|
D|----2-------|--2---------|0-----------|----2-------|
A|--2---------|0-----------|------------|--2---------|
E|0-----------|------------|------------|0-----------|
  ddhosi     buddhosi     niran-     jan- osi     Sam-

  Em           Am            D           Em
e|----------0-|--------0---|------2-----|----------0-|
B|--------0---|------1---1-|----3---3---|--------0---|
G|------0-----|----2-------|--2-------2-|------0-----|
D|----2-------|--2---------|0-----------|----2-------|
A|--2---------|0-----------|------------|--2---------|
E|0-----------|------------|------------|0-----------|
  sara      maya       pari-var     jit- osi      Sam-

  Am           Em           Am           Em        
e|--------0---|----------0-|--------0---|----------0-|
B|------1---1-|--------0---|------1---1-|--------0---|
G|----2-------|------0-----|----2-------|------0-----|
D|--2---------|----2-------|--2---------|----2-------|
A|0-----------|--2---------|0-----------|--2---------|
E|------------|0-----------|------------|0-----------|
  sara      svapanam     traija mohan nidram       Na

  Em           Am            D           Em
e|----------0-|--------0---|------2---2-|----------0-|
B|--------0---|------1---1-|----3---3-3-|--------0---|
G|------0-----|----2-------|--2-------2-|------0-----|
D|----2-------|--2---------|0---------0-|----2-------|
A|--2---------|0-----------|----------0-|--2---------|
E|0-----------|------------|------------|0-----------|
  janma mrityor            Tat sat       sva rupe


This is a beautiful vedic lullaby, sung, as legend would have it,
by the enlightened queen Madalasa to her sons to teach them of 
their essential purity and the illusory nature of the world.

Suddhosi buddhosi niranjanosi
Samsara maya parivar jitosi
Samsara svapanam
Traija mohan nidram
Na janma mrityor
Tat sat sva rupe

Transcribed here is a simple guitar version as played by 
Yogi Sarveshwarananda
https://www.youtube.com/watch?v=yFOE_gXCtKk
(although he's tuned at A420 in that clip)

I'll try to work out the more decorative guitar parts
by Shimshai or The Love Keys if anyone is interested.
Добавлено: 27.09.2015
Другие материалы по этой песне:
  • Аккорды и текст

Страница создана 27.09.2015
http://primanota.ru/traditional/suddhosi-buddhosi-chords.htm
Привет, Гость.
Предлагаем пройти революционный курс по гитаре.
Подарок от PrimaNota.Ru, забирай!