PrimaNota.ru - самый крупный в мире бесплатный архив песенных текстов, аккордов, табулатур и нот


Traditional - Greensleeves - таба, видео

Регистрация Запомнить меня
Войти через:  Facebook Google Twitter Vk Yandex Mail.ru

Traditional - Greensleeves - таба, видео

Печатать
Просмотров: 77



Date: Sun, 18 Jun 2000 19:06:01 -0400
From: Guilherme 
Subject: classical/greenleeves

Greensleeves

Legend
------

 h  = hammer-on
 p  = pull-off
 b  = bend
 r  = bend release
 /  = slide up/down
 = natural harmonic
[5] = artifical harmonic
 ~  = vibrato
 tr = trill

Tabbed by Greg Motlasz 
Comments and corrections are welcome.

[bars 9 and 13, basic chord changed from G to C
and end chord repeated in last bar - Weed Aug 98]

In 6/8 time, which is a little awkward to the untrained ears
(such as my own).  This tab doesn't do a very good job at
correct timing, so you're on your own for that part.


E|-----|--------0--1--0----|---------------------|-------------------|-----
B|-----|--1--3-------------|--3----0-------------|--1----------------|--0--
G|--2--|--2----------------|--0-------0--2--4----|--2--2--2--1--2----|-----
D|-----|-------------------|----------0----------|-------------------|-----
A|-----|--0-----3----------|---------------------|--0-----0----------|-----
E|-----|-------------------|--3-------3----------|-------------------|--0--



E|-------------|--------0--1--0----|---------------------|-----------------
B|-------------|--1--3-------------|--3----0-------------|--1--0-----------
G|--1----------|--2----------------|--0-------0--2--4----|--2-----2--1-----
D|-----2-------|-------------------|----------0----------|--------------4--
A|-------------|--0-----3----------|---------------------|--0--------------
E|--------0----|-------------------|--3-------3----------|-----------0-----



E|-----|---------------|--3------3--2--0--|---------------------|-----------
B|-----|---------------|--1------1--------|--3----0-------------|--1--------
G|--1--|--2----2--2----|--0------0--------|--0-------0--2--4----|--2--2--2--
D|-----|--2----2--2----|------------------|----------0----------|-----------
A|-----|--0----0--0----|--3------3--------|---------------------|--0-----0--
E|-----|---------------|------------------|--3-------3----------|-----------



E|----------|----------------|--3------3--2--0--|---------------------|-----
B|----------|--0-------------|--1------1--------|--3----0-------------|--1--
G|--1--2----|-----1----------|--0------0--------|--0-------0--2--4----|--2--
D|----------|--------2-------|------------------|----------0----------|-----
A|----------|----------------|--3------3--------|---------------------|--0--
E|----------|--0----------0--|------------------|--3-------3----------|-----



E|--------------|-------------|--
B|--------------|-------------|--
G|--2--1-----0--|--2-----2----|--
D|--------4-----|--2-----2----|--
A|--------------|--0-----0----|--
E|-----0--------|-------------|--


*************************************************************************

============================================================================

         Title : Greensleeves
        Artist : Attributed to Henry VIII
Transcribed by:  Kevin J. Manges, braumstr@bright.net
                 (formerly braumeister@centuryinter.net and Kevinm2556@aol.com)
Downloaded From: http://members.tripod.com/~Braumeister/index.htm
           Note: Best Viewed in Courier or Courier New 10 pt.
                 See accompanying MIDI/MP3 file also at this site.
        Updated: 10/28/98
============================================================================



                                    Greensleeves


Transcribed by Kevin J. Manges                     Attributed to Henry VII



E||-----|----------0---2-0--|-------------------|-------------------|
B||-----|--1----3-----------|--3----0--------0--|--1----------------|
G||--2--|-------------------|--0-------0---2----|--2----2--2---1-2--|
D||-----|-------------------|--0-------2--------|--2----------------|
A||-----|--0----2--3--------|-------------------|--0----------------|
E||-----|-------------------|--3-------0--------|----------1--------|



E|------------------|----------0---2-0--|------------------|-------------------|
B|--0---------------|--1----3-----------|--3----0--------0-|--1---0------------|
G|-------1-------2--|-------------------|--0-------0---2---|--2-----2--1-----1-|
D|----------2-------|-------------------|--0-------2-------|--2------------4---|
A|------------------|--0----2--3--------|------------------|--0----------------|
E|--0---------------|-------------------|--3-------0-------|-----------0-------|




E|----------------|--3------3---2-0--|-------------------|-------------------|
B|----------------|--1---------------|--3----0--------0--|--1----------------|
G|--2------2------|--0---------------|--0-------0---2----|--2----2--2---1-2--|
D|--2------2------|---------2---0----|--0-------2--------|--2----------------|
A|--0------0------|--3------------3--|--2----------------|--0----------------|
E|----------------|------------------|----------3--------|----------1--------|




E|-----------------|--3------3---2-0--|-------------------|--------------------|
B|--0--------------|--1---------------|--3----0--------0--|--1---0-------------|
G|-------1---------|--0---------------|--0-------0---2----|--2-----2--1-----1--|
D|----------2------|---------2---0----|--0-------2--------|--2------------4----|
A|-----------------|--3------------3--|--2----------------|--0-----------------|
E|--0--------------|------------------|----------3--------|-----------0--------|




E|--------------||
B|--------------||
G|--2------2----||
D|--2------2----||
A|--0------0----||
E|--------------||


Добавлено: 07.02.2014
Другие материалы по этой песне:

Страница создана 25.03.2012
http://primanota.ru/traditional/greensleeves-chords.htm
Привет, Гость.
Предлагаем пройти революционный курс по гитаре.
Подарок от PrimaNota.Ru, забирай!