PrimaNota.ru - самый крупный в мире бесплатный архив песенных текстов, аккордов, табулатур и нот


Toy Dolls - Bare Faced Cheek - текст песни, таба, видео

Регистрация Запомнить меня
Войти через:  Facebook Google Twitter Vk Yandex Mail.ru

Toy Dolls - Bare Faced Cheek - текст песни, таба, видео

Печатать
Просмотров: 104
bare faced cheek


the toy dolls


TRANSCRIBED BY RUDY GUZMAN


guzman_84@hotmail.com



  material girl bit.
                                x2
e:--------------------------------|
B:-1-1-1-1-1-1-1-1--3-3-3-3-3-3-3-|
G:-0-0-0-0-0-0-0-0--3-3-3-3-3-3-3-|
D:-2-2-2-2-2-2-2-2--3-3-3-3-3-3-3-|
A:-3-3-3-3-3-3-3-3--1-1-1-1-1-1-1-|
E:--------------------------------|


  Some boys kiss me, some boys hug me
e:--------------------------------|
B:-1-1-1-1-1-1-1-1--1-1-1-1-1-1-1-|
G:-0-0-0-0-0-0-0-0--0-0-0-0-0-0-0-|
D:-2-2-2-2-2-2-2-2--2-2-2-2-2-2-2-|
A:-3-3-3-3-3-3-3-3--3-3-3-3-3-3-3-|
E:--------------------------------|

  I think they're O.K.
e:------------------------|
B:-3-3-3-3-3-3-3-3--1-1-1-|
G:-3-3-3-3-3-3-3-3--2-2-2-|
D:-3-3-3-3-3-3-3-3--2-2-2-|
A:-1-1-1-1-1-1-1-1--0-0-0-|
E:------------------------|

  If they don't give me proper credit
e:--------------------------------|
B:-1-1-1-1-1-1-1-1--1-1-1-1-1-1-1-|
G:-0-0-0-0-0-0-0-0--0-0-0-0-0-0-0-|
D:-2-2-2-2-2-2-2-2--2-2-2-2-2-2-2-|
A:-3-3-3-3-3-3-3-3--3-3-3-3-3-3-3-|
E:--------------------------------|

  I just walk    away
e:-1-1-1-1-1-1-1--3-|
B:-3-3-3-3-3-3-3--3-|
G:-2-2-2-2-2-2-2--0-|
D:-0-0-0-0-0-0-0--0-|
A:----------------2-|
E:----------------3-|


ppppppppppprrrrrrrrrrrrrrrrrrrr!!!!!!!!!!!!!!!!!!!!!


  You got me outa my head....                                             
e:------------------------------------------------------------------------|
B:------------------------------------------------------------------------|
G:------------------------------------------------------------------------|
D:-5-5-7--5-5-5-7-5--------------------5-5-7--5-5-5-7--5-5-5-7--5-5-5-7-5-|
A:-3-3-3--3-3-3-3-3--3-3-5--3-3-3-5-3--3-3-3--3-3-3-3--3-3-3-3--3-3-3-3-3-|
E:-------------------1-1-1--1-1-1-1-1-------------------------------------|

e:---------------------|
B:---------------------|
G:---------------------|
D:---------------------|
A:-5-5-7--5-5-5-7-5--3-|
E:-3-3-3--3-3-3-3-3--1-|

                     Well it's a bare faced cheek...
e:------------------------------------------------------------------------|
B:------------------------------------------------------------------------|
G:------------------------------------------------------------------------|
D:-4/5-5-5--4/5-5-5--4/5-5-5--4/5-5-5--4/5-5-5--4/5-5-5--4/5-5-5--4/5-5-5-|
A:-2/3-3-3--2/3-3-3--2/3-3-3--2/3-3-3--2/3-3-3--2/3-3-3--2/3-3-3--2/3-3-3-|
E:------------------------------------------------------------------------|

            calling me a skinny freak
e:---------------------------------------------|
B:---------------------------------------------|
G:---------------------------------------------|
D:---------------------------------------------|
A:-2h3-3-3--2h3-3-3--2h3-3-3--2h3-3-3--2h3-3-3-|
E:-0h1-1-1--0h1-1-1--0h1-1-1--0h1-1-1--0h1-1-1-|

         it's a bare faced cheek
e:------------------------------------|
B:------------------------------------|
G:------------------------------------|
D:-4/5-5-5--4/5-5-5--4/5-5-5--4/5-5-5-|
A:-2/3-3-3--2/3-3-3--2/3-3-3--2/3-3-3-|
E:------------------------------------|

you say I'm a skinny punk
e:----------------------|
B:----------------------|
G:----------------------|
D:----------------------|
A:-3-3-3-3-3-3-3-3-3--5-|
E:-1-1-1-1-1-1-1-1-1--3-|

cheeky monkey
e:-6h9p6h9p6h9p6h9p6------------------------------------------|
B:-------------------9-6h9p6----------------------------------|
G:---------------------------8-6h8p6--------------------------|
D:-----------------------------------8-7-6-5-4-2b--5\---------|
A:-------------------------------------------------3\---------|
E:------------------------------------------------------------|




hillo son mex

18/09/15
Добавлено: 26.02.2016
Другие материалы по этой песне:
  • Аккорды и текст

Страница создана 26.03.2012
http://primanota.ru/toy-dolls/bare-faced-cheek-chords.htm
Привет, Гость.
Предлагаем пройти революционный курс по гитаре.
Подарок от PrimaNota.Ru, забирай!