PrimaNota.ru - самый крупный в мире бесплатный архив песенных текстов, аккордов, табулатур и нот


Toshiro Masuda - Raising Fighting Spirit - таба, видео

Регистрация Запомнить меня
Войти через:  Facebook Google Twitter Vk Yandex Mail.ru

Toshiro Masuda - Raising Fighting Spirit - таба, видео

Печатать
Просмотров: 286
Уроки эстрадного вокала в Санкт-Петербурге
Song: The Raising Fighting Spirit
Artist: Toshiro Mausuda
Copyright: Toshiro Masuda
Author: N-DiviD

Here are the most accurate tabs I could make for "The Raising Fighting Spirit".

Enjoy.


Part 1 (2x)
e---------------------------------------------------------------------------------------------|
B---------------------------------------------------------------------------------------------|
G------------------------------------------------7--6-------------------------------5-5--4-4--|
D------------------------------------------------7--6-------------------------------5-5--4-4--|
A--------------p/2-0----------------------5--4---------------p/2-0-----------3-3--2-2---------|
E---------0-0-0-3-2-0-------3-5-3-2--0-0-0-3-2--------0-0-0-3-2-0---------3-5-3-2-0-----------|


Part 2 (2x)

e------------------------------------------------------------------------------------------------------------------|
B------------------------------------------------------------------------------------------------------------------|
G---9-999-9-999--7-777-7-777--9-999-9-999--7-777-7-777--5-555-5-555--7-777-7---------------------------------------|
D---9-999-9-999--7-777-7-777--9-999-9-999--7-777-7-777--5-555-5-555--7-777-7---------------------------------------|
A---7-777-7-777--5-555-5-555--7-777-7-777--5-555-5-555--3-333-3-333--5-555-5---------------p/2-0-------------------|
E-------------------------------------------------------------------------------------0-0-0-3-2-0-------3-5-3-2-0--|


Part 3

e------------------------------------------------------------------------------------------------------------------|
B------------------------------------------------------------------------------------------------------------------|
G------------------------------------------------------------------------------------------------------------------|
D---------------------------7-----7------9-----9------10----10------9-9-9-9----------------------------------------|
A---3(16x)--2(8x)-----------7-----7------9-----9------10----10------7-7-7-7----------------------------------------|
E------------------0-2-3-4--5-555-5-555--7-777-7-777---8-888-8-888-------------------------------------------------|


e------------------------------------------------------------------------------------------------------------------|
B------------------------------------------------------------------------------------------------------------------|
G------------------------------------------------------------------------------------------------------------------|
D---2--4--5--5---7--5--12--9----2--4--5--5---10--12--9-9-9-9-------------------------------------------------------|
A---2--4--5--5---7--5--12--9----2--4--5--5----8--12--7-7-7-7-------------------------------------------------------|
E---0--2--3--3---5--3--10--7----0--2--3--3----8--10----------------------------------------------------------------|

Final Part


e---------------------------------------------------------------------------------------------|
B---------------------------------------------------------------------------------------------|
G------------------------------------------------7--6-------------------------------5-5--4-4--|
D------------------------------------------------7--6-------------------------------5-5--4-4--|
A--------------p/2-0----------------------5--4---------------p/2-0-----------3-3--2-2---------|
E---------0-0-0-3-2-0-------3-5-3-2--0-0-0-3-2--------0-0-0-3-2-0---------3-5-3-2-0-----------|

e----------------------------------------------------------------------------------------------------------|
B----------------------------------------------------------------------------------------------------------|
G------------------------------------------------7--6--------------------------------5-5--4-4-4-4-4-4-4-4--|
D------------------------------------------------7--6--------------------------------5-5--4-4-4-4-4-4-4-4--|
A--------------p/2-0----------------------5--4---------------p/2-0------------3-3--2-2-2-2-2-2-2-2---------|
E---------0-0-0-3-2-0-------3-5-3-2--0-0-0-3-2--------0-0-0-3-2-0---------3-5-3-2-0------------------------|
Добавлено: 03.07.2013
Другие материалы по этой песне:
  • Аккорды и текст

Страница создана 03.07.2013
http://primanota.ru/toshiro-masuda/raising-fighting-spirit-chords.htm
Привет, Гость.
Предлагаем пройти революционный курс по гитаре.
Подарок от PrimaNota.Ru, забирай!