PrimaNota.ru - самый крупный в мире бесплатный архив песенных текстов, аккордов, табулатур и нот


Toshiro Masuda - Rising Fighting Spirit - таба, видео

Регистрация Запомнить меня
Войти через:  Facebook Google Twitter Vk Yandex Mail.ru

Toshiro Masuda - Rising Fighting Spirit - таба, видео

Печатать
Просмотров: 389
Уроки эстрадного вокала в Санкт-Петербурге
This tab was based, on a youtube video, which I found too fast XD so I turned it into a 
with slight which was slightly edited.

p=Pull off
/=slide

This tab is played by the rythm guitar so listen to the song, and listen in the 
and this is the part you are playing.

This is not a bass tab! This is my first tab so go easy.
The reason I put this as intermidiate is because you have to play it quite fast...

Riff 1
G|--------------------------------------------------------------------------|
D|--------------------------------------------------------------------------|
A|-------------------------------2--p-0-------------------------------------|
E|---12/--0--0--0--3--2--0--------------------------------------------------|

G|--------------------------------------------------------------------------|
D|--------------------------------------------------------------------------|
A|--------------------------------------------------------------------------|
E|----3--5--3--2------------------------------------------------------------|

G|--------------------------------------------------------------------------|
D|--------------------------------------------------------------------------|
A|--------------------------------------------------------------------------|
E|---0--0--0--3--2--0-------------------------------------------------------|

G|----7---------------------------------------------------------------------|
D|----7-----7---------------------------------------------------------------|
A|----5-----7---------------------------------------------------------------|
E|----------5---------------------------------------------------------------|

G|--------------------------------------------------------------------------|
D|--------------------------------------------------------------------------|
A|------------------------2--p--0-------------------------------------------|
E|---0--0--0--3--2--0-------------------------------------------------------|

G|--------------------------------------------------------------------------|
D|--------------------------------------------------------------------------|
A|--------------------------------------------------------------------------|
E|--3--5--3--2--------------------------------------------------------------|

G|---5---5--------4---4-----------------------------------------------------|
D|---5---5--------4---4-----------------------------------------------------|
A|---3---3--------2---2-----------------------------------------------------|
E|--------------------------------------------------------------------------|

Riff 2

G|---9--9--9--9--9--9--9--9-------------------------------------------------|
D|---9--9--9--9--9--9--9--9-------------------------------------------------|
A|---7--7--7--7--7--7--7--7-------------------------------------------------|
E|--------------------------------------------------------------------------|

G|---7--7--7--7--7--7--7--7-------------------------------------------------|
D|---7--7--7--7--7--7--7--7-------------------------------------------------|
A|---5--5--5--5--5--5--5--5-------------------------------------------------|
E|--------------------------------------------------------------------------|

G|---9--9--9--9--9--9--9--9-------------------------------------------------|
D|---9--9--9--9--9--9--9--9-------------------------------------------------|
A|---7--7--7--7--7--7--7--7-------------------------------------------------|
E|--------------------------------------------------------------------------|

G|---7--7--7--7--7--7--7--7-------------------------------------------------|
D|---7--7--7--7--7--7--7--7-------------------------------------------------|
A|---5--5--5--5--5--5--5--5-------------------------------------------------|
E|--------------------------------------------------------------------------|

G|---5--5--5--5--5--5--5--5-------------------------------------------------|
D|---5--5--5--5--5--5--5--5-------------------------------------------------|
A|---3--3--3--3--3--3--3--3-------------------------------------------------|
E|--------------------------------------------------------------------------|

G|---7--7--7--7--7--7--7--7-------------------------------------------------|
D|---7--7--7--7--7--7--7--7-------------------------------------------------|
A|---5--5--5--5--5--5--5--5-------------------------------------------------|
E|--------------------------------------------------------------------------|

G|--------------------------------------------------------------------------|
D|--------------------------------------------------------------------------|
A|------------------------2--p--0-------------------------------------------|
E|---0--0--0--3--2--0-------------------------------------------------------|

G|--------------------------------------------------------------------------|
D|--------------------------------------------------------------------------|
A|--------------------------------------------------------------------------|
E|--3--5--3--2--------------------------------------------------------------|

G|---5---5--------4---4-----------------------------------------------------|
D|---5---5--------4---4-----------------------------------------------------|
A|---3---3--------2---2-----------------------------------------------------|
E|--------------------------------------------------------------------------|

Riff 3

G|--5--5--5--5--5-----------------------------------------------------------|
D|--5--5--5--5--5-----------------------------------------------------------|
A|--3--3--3--3--3-----------------------------------------------------------|
E|--------------------------------------------------------------------------|

G|--4--4--4--4--4-----------------------------------------------------------|
D|--4--4--4--4--4-----------------------------------------------------------|
A|--2--2--2--2--2-----------------------------------------------------------|
E|--------------------------------------------------------------------------|

G|--------------------------------------------------------------------------|
D|---2--4--5--6-------------------------------------------------------------|
A|---2--4--5--6-------------------------------------------------------------|
E|--0--2---3-4--------------------------------------------------------------|

G|--------------------------------------------------------------------------|
D|---7--7--7--7--7----------------------------------------------------------|
A|---7--7--7--7--7----------------------------------------------------------|
E|--5--5--5--5--5-----------------------------------------------------------|

G|--4--4--4--4--4-----------------------------------------------------------|
D|--4--4--4--4--4-----------------------------------------------------------|
A|--2--2--2--2--2-----------------------------------------------------------|
E|--------------------------------------------------------------------------|


G|--5--5--5--5--5-----------------------------------------------------------|
D|--5--5--5--5--5-----------------------------------------------------------|
A|--3--3--3--3--3-----------------------------------------------------------|
E|--------------------------------------------------------------------------|

G|---7---7------7------7----------------------------------------------------|
D|---7---7------7------7----------------------------------------------------|
A|---5---5------5------5----------------------------------------------------|
E|--------------------------------------------------------------------------|


Riff 4

G|--------------------------------------------------------------------------|
D|---2---------4---------5--------------------------------------------------|
A|---2---------4---------5--------------------------------------------------|
E|---0---------2---------3--------------------------------------------------|

G|---5-------------7----4---------------------------------------------------|
D|---5-----5------7----4----------------------------------------------------|
A|---3-----5------5----2----------------------------------------------------|
E|---------3----------------------------------------------------------------|

G|--------------------------------------------------------------------------|
D|---2---------4---------5--------------------------------------------------|
A|---2---------4---------5--------------------------------------------------|
E|---0---------2---------3--------------------------------------------------|

G|---5---7---9--9--9--9-----------------------------------------------------|
D|---5---7---9--9--9--9-----------------------------------------------------|
A|---3---5---7--7--7--7-----------------------------------------------------|
E|--------------------------------------------------------------------------|
Добавлено: 14.06.2013
Другие материалы по этой песне:
  • Аккорды и текст

Страница создана 14.06.2013
http://primanota.ru/toshiro-masuda/rising-fighting-spirit-chords.htm
Привет, Гость.
Предлагаем пройти революционный курс по гитаре.
Подарок от PrimaNota.Ru, забирай!