PrimaNota.ru - самый крупный в мире бесплатный архив песенных текстов, аккордов, табулатур и нот


Toshio Masuda - Sadness And Sorrow - таба, видео

Регистрация Запомнить меня
Войти через:  Facebook Google Twitter Vk Yandex Mail.ru

Toshio Masuda - Sadness And Sorrow - таба, видео

Печатать
Просмотров: 1322
I'm teaching myself how to play guitar, so I decided to challenge myself.  I just tried
after note after note until I came up with the right combination.  This sounds pretty
like the actual song to me, hopefully it will for yall too. Extremely simple, just made 
for the folks who want to play it but aren't good enough yet to play the other guitar pro
of the tabs on the internet.

E---3-2----------3-2---------------------------|
B-------3------------0-------------------------|
G----------------------------------------------|
D--2------------2------------------------------|
A----------------------------------------------|
E-0------------0-------------------------------|

E-1-0---------0-3-5---------3-2-3-5---7---5-2--|
B-----0-------------5---------------3----------|
G----------------------------------------------|
D----------------------------------------------|
A----------------------------------------------|
E----------------------------------------------|

E-1-0-----------------------3-2-3-5------------|
B-----0------0-3-5------------------3-5--------|
G------------------5---------------------------|
D----------------------------------------------|
A----------------------------------------------|
E----------------------------------------------|
Добавлено: 26.06.2012
Другие материалы по этой песне:

Страница создана 26.02.2012
http://primanota.ru/toshio-masuda/sadness-and-sorrow-chords.htm
Привет, Гость.
Предлагаем пройти революционный курс по гитаре.
Подарок от PrimaNota.Ru, забирай!