PrimaNota.ru - самый крупный в мире бесплатный архив песенных текстов, аккордов, табулатур и нот


Tonight Alive - Listening - аккорды и текст, видео

Регистрация Запомнить меня
Войти через:  Facebook Google Twitter Vk Yandex Mail.ru

Tonight Alive - Listening - аккорды и текст, видео

Печатать
Просмотров: 327
Уроки эстрадного вокала в Санкт-Петербурге
Listening
Tonight Alive
Tonight Alive
Listening
What Are You So Scared Of
2011
Submitted by: paramore_fans@yahoo.com

Key: E

Tuning: Standard EADGBe

Chords used:
C#m -  x46654
A -    x02220
E -    022100
B -    x24442
F#m -  244222
B/Eb - x698xx
G#m -  466444


Intro:
(you listening listening)

Plucking: x2
          A           F#m
e|-----------------|-------|
B|-----2--2------2-|-------|
G|-----------------|-----2-|
D|---2---------2---|---4---|
A|-0---------0-----|-------|
E|-----------------|-2-----|

     C#m           E
e|----------|--------------|
B|----------|--------------|
G|----------|-----4--------|
D|-----6--6-|------------4-|
A|-4-4------|---2------2---|
E|----------|-0------0-----|


Distortion: A--F#m-C#m--

Guitar 2:
                 A                    F#m
e|----12----9-----12----9-----16-|-14-12----|
B|-10----10----10----10----10----|------12--|
G|-------------------------------|----------|
D|-------------------------------|----------|
A|-------------------------------|----------|
E|-------------------------------|----------|

                    C#m
e|----16----12-----16----12--------16----12-|
B|-14----14-----14----14--------14----14----|
G|---------------------------13-------------|
D|------------------------------------------|
A|------------------------------------------|
E|------------------------------------------|


Verse 1:
     C#m
Your eyes are closed
G#m     A
you're sleeping
F#m G#m A
are you dreaming?
E  G#m  C#m
Is this truth we know
 G#m     A     F#m G#m
Even the truth at  all
      A    E   G#m
we're only breathing
C#m                   G#m
Naive minds for naive lives
A    F#m   G#m  A
  we don't have nine lives
E    G#m  C#m
open your eyes the only
           A   F#m G#m
chance you get is
A    E G#m  C#m--
here tonight


Chorus 1:
A
  We all have
            F#m
hearts that beat
C#m
   you're nodding but
             E
are you listening
A
  your lips move
             F#m C#m
no one makes a   sound
you listening
(hold)
are you listening


Verse 2:
C#m                     G#m
   Our eyes they cannot see
A          F#m G#m A
   They're was-ted on
       E    G#m C#m
people just like me
                        G#m
I've been blind for too long
A    F#m     G#m A
   I thought I   knew my
E     G#m  A
right from wrong
                G#m
But now it only seems
A       F#m
letting myself down
                 C#m
Is it just in my dreams
A
  You're letting be to
   G#m A    C#m(hold)
to yourself then you'll see


Chorus 2:
A
  We all have
            F#m
hearts that beat
C#m
   you're nodding but
             E
are you listening
A
  your lips move
             F#m C#m
no one makes a   sound
you listening
(hold)
are you listening
A                  F#m
  We all have to believe
C#m
   That it's easier
         E A
to dream so your lips
your lips move
             F#m C#m
no one makes a   sound
you listening
             E(hold)
are you listening


Interlude: A--F#m-C#m--


Guitar 2:
                 A                    F#m
e|----12----9-----12----9-----16-|-14-12----|
B|-10----10----10----10----10----|------12--|
G|-------------------------------|----------|
D|-------------------------------|----------|
A|-------------------------------|----------|
E|-------------------------------|----------|

                    C#m
e|----16----12-----16----12--------16----12-|
B|-14----14-----14----14--------14----14----|
G|---------------------------13-------------|
D|------------------------------------------|
A|------------------------------------------|
E|------------------------------------------|


Bridge: Do Intro plucking part
A
  It's a little bit of give
      F#m           C#m
and a little bit of take
When you're looking
      E
for a mark
you want to make
A
  It's a little bit of give
      F#m           C#m
and a little bit of take
A
  Don't be afraid no
           F#m
Don't be afraid no
C#m                      E
   It's the part of everyone
you gotta go through
A
  Don't be afraid no
           F#m    C#m E--(hold)
Don't be afraid no


Chorus 3:
A
  We all have
hearts that beat
C#m
   you're nodding but
are you listening
A
  your lips move
             F#m C#m
no one makes a   sound
you listening
(hold)
are you listening
A                  F#m
  We all have to believe
C#m
   That it's easier
         E A
to dream so your lips
your lips move
             F#m C#m
no one makes a   sound
you listening
             E
are you listening


Outro: While doing intro distortion part for guitar 2
A F#m C#m
         you listening
        E    F#m
are you listening
A F#m C#m
         you listening
        E    F#m
are you listening
A
are you are
you listening
C#m
are you are
              A C#m
you listening
you listening
are you listening
Добавлено: 06.12.2013
Другие материалы по этой песне:
  • Аккорды и текст

Страница создана 06.12.2013
http://primanota.ru/tonight-alive/listening-chords.htm
Привет, Гость.
Предлагаем пройти революционный курс по гитаре.
Подарок от PrimaNota.Ru, забирай!