PrimaNota.ru - самый крупный в мире бесплатный архив песенных текстов, аккордов, табулатур и нот


Tommy Flanagan - Eclypso - таба, видео

Регистрация Запомнить меня
Войти через:  Facebook Google Twitter Vk Yandex Mail.ru

Tommy Flanagan - Eclypso - таба, видео

Печатать
Просмотров: 71
Авторы музыки: Tommy Flanagan

-------------------------------------------------------------------------------
                             Eclpyso - Tommy Flanagan
-------------------------------------------------------------------------------
 
[A]
  Fm7     Bb7      Ebmaj7  C7       Fm7     Bb7      Gm7     C7
e|----------------|----------------|----------------|----------------|
B|----------------|----------------|----------------|----------------|
G|----------------|----------------|----------5-----|----------------|
D|----------------|--5---8-6-5-----|------6-----8---|--5-------5-----|
A|------5---8-6---|------------8-7-|8---------------|------8-7-------|
E|6---------------|----------------|----------------|--------------8-|
 
  Fm7     Bb7      Gm7     C7       Fm7     Bb7      Eb6         C7   
e|----------------|----------------|----------------|----------------|
B|----------------|----------------|----------------|----------------|
G|----------5-----|----------------|----------------|----------------|
D|------6-----8---|--5-------5-----|------5-----8-5-|----------------|
A|8---------------|------8-7-------|8---------------|6-6-6-6---------|
E|----------------|--------------8-|----------------|----------------|

[B]
  Bbm7             Eb7              Abmaj7 
e|----------------|----------------|----------------|----------------|
B|----------------|----------------|----------------|----------------|
G|----------------|--5-3---3-6-5-5-|----------------|----------------|
D|----3-6-5-----3-|6-----5---------|----------------|----------------|
A|4---------------|----------------|----------------|----------------|
E|----------------|----------------|----------------|----------------|
  
  Cm7              F7               Fm7              Bb7     C7
e|----------------|----------------|----------------|----------------|
B|----------------|--------------6-|----------------|----------------|
G|----------------|--7-5---5-8-7---|----------------|----------------|
D|----5-8-7-----5-|8-----7---------|----------------|----------------|
A|6---------------|----------------|----------------|----------------|
E|----------------|----------------|----------------|----------------|

************************************
Tuning: Standard
Time: 4/4
Song Structure: {[A][A][B][A]
Each - represents 1 sixteenth note.
Chord Changes come on beats 1 and 3,
   except the final C7 of the [A] 
   section, which is on beat 4.

Recommended Recording:
 Album: "The Cats" 
 Featuring:
   Tommy Flanagan - Piano
   John Coltrane - Tenor Saxophone
   Kenny Burrell - Guitar
************************************
Добавлено: 02.06.2016
Другие материалы по этой песне:
  • Аккорды и текст

Страница создана 02.06.2016
http://primanota.ru/tommy-flanagan/eclypso-chords.htm
Привет, Гость.
Предлагаем пройти революционный курс по гитаре.
Подарок от PrimaNota.Ru, забирай!