PrimaNota.ru - самый крупный в мире бесплатный архив песенных текстов, аккордов, табулатур и нот


Tom Petty - Make It Better (Forget About Me) (feat. Heartbreakers) - текст песни, бас-таба, видео

Регистрация Запомнить меня
Войти через:  Facebook Google Twitter Vk Yandex Mail.ru

Tom Petty - Make It Better (Forget About Me) (feat. Heartbreakers) - текст песни, бас-таба, видео

Печатать
Просмотров: 31
Уроки эстрадного вокала в Санкт-Петербурге
[Intro: Comes in at :05]

G|-----------------|-----------------|-----------------|-----------------|  x2
D|-7---------------|-----------------|-7---------------|-----------------|
A|-----------------|-9---------------|-----------------|-9---------------|
E|-----------------|-----------------|-----------------|-----------------|


[Verse]

G|-----------------|-----------------|-----------------|-----------------|  x5
D|-7---------7-----|-----------------|-7---------7-----|-----------------|
A|-------7-------7-|-9---------9---9-|-------7-------7-|-9---------9---9-|
E|-----------------|-------9---------|-----------------|-------9---------|

G|-----------------|-----------------|-----------------|-----------------|
D|-----------------|-----------------|-----5-------5---|-----5-------5---|
A|-5---5---5---5---|-5---5---5---5---|-----------------|-----------------|
E|-----------------|-----------------|-3-------3-3-----|-3-------3-3-----|

G|-----------------|-----------------|-----------------|-----------------|
D|-----------------|-----------------|-3---3---3---3---|-3---3---3---3---|
A|-5---5---5---5---|-3---3---3---3---|-----------------|-----------------|
E|-----------------|-----------------|-----------------|-----------------|

G|-----------------|-----------------|-----------------|-----------------|
D|-----------------|-----------------|-----5-------5---|-----5-------5---|
A|-5---5---5---5---|-5---5---5---5---|-----------------|-----------------|
E|-----------------|-----------------|-3-------3-3-----|-3-------3-3-----|

G|-----------------|-----------------|-------------5/10|-----------------|
D|-----------------|---------2-2-5-5-|-3-3-5-5-7-7-----|-3---5---7---8\--|
A|-5---5---5---5---|-3-3-5-5---------|-----------------|-----------------|
E|-----------------|-----------------|-----------------|-----------------|


[Chorus]

G|-----------------|-----------------|-----------------|-----------------|  x2
D|-7-------7-7-----|-----------------|-7-------7-7-----|-----------------|
A|-----9-7-----9-7-|-9---7---7-9-7---|-----9-7-----9-7-|-9---7---7-9-7---|
E|-----------------|-------9-------9-|-----------------|-------9-------9-|

G|-----------------|-----------------|-----------------|-----------------|
D|-----------------|-----------------|-----5-------5---|-----5-------5---|
A|-5---5---5---5---|-5---5---5---5---|-----------------|-----------------|
E|-----------------|-----------------|-3-------3-3-----|-3-------3-3-----|

G|-----------------|-----------------|-------------5/10|-----------------|
D|-----------------|---------2-2-5-5-|-3-3-5-5-7-7-----|-3---5---7---8\--|
A|-5---5---5---5---|-3-3-5-5---------|-----------------|-----------------|
E|-----------------|-----------------|-----------------|-----------------|


[Breakdown]

G|-----------------|-----------------|-----------------|-----------------|
D|-7-------7-7-----|-----------------|-7-------7-7-----|-----------------|
A|-----9-7-----9-7-|-9---7---7-9-7---|-----9-7-----9-7-|-9r--------------|
E|-----------------|-------9-------9-|-----------------|-----------------|


[Pre-Bridge]

G|-----------------|-----------------|-----------------|-----------------|  x2
D|-7-------7-7-----|-----------------|-7-------7-7-----|-----------------|
A|-----9-7-----9-7-|-9---7---7-9-7---|-----9-7-----9-7-|-9---7---7-9-7---|
E|-----------------|-------9-------9-|-----------------|-------9-------9-|


[Bridge]

G|-----------------|-----------------|-----------------|-----------------|
D|-----------------|-----------------|-----------------|-----------------|
A|-1---1---1---1---|-1---1---1---1---|-3---3---3---3---|-3---3---3---3---|
E|-----------------|-----------------|-----------------|-----------------|

G|-----------------|-----------------|-----------------|-----------------|
D|-----------------|-----------------|-3---3---3---3---|-2---2---2-2-2-2-|
A|-1---1---1---1---|-1---1---1---1---|-----------------|-----------------|
E|-----------------|-----------------|-----------------|-----------------|


[Solo]

G|-----------------|-----------------|-----------------|-----------------|  x2
D|-7-------7-7-----|-----------------|-7-------7-7-----|-----------------|
A|-----9-7-----9-7-|-9---7---7-9-7---|-----9-7-----9-7-|-9---7---7-9-7---|
E|-----------------|-------9-------9-|-----------------|-------9-------9-|


[Breakdown 2]

G|-----------------|-----------------|-----------------|-----------------|  x4
D|-7-------7-7-----|-----------------|-7-------7-7-----|-----------------|
A|-----9-7-----9-7-|-9---7---7-9-7---|-----9-7-----9-7-|-9---7---7-9-7---|
E|-----------------|-------9-------9-|-----------------|-------9-------9-|


[Outro]

G|-----------------|-----------------|-----------------|-----------------|  x8/to fade
D|-7-------7-7-----|-----------------|-7-------7-7-----|-----------------|
A|-----9-7-----9-7-|-9---7---7-9-7---|-----9-7-----9-7-|-9---7---7-9-7---|
E|-----------------|-------9-------9-|-----------------|-------9-------9-|


Hope you enjoy the tab. Pretty fun bass line and song.
Let me know if you have any improvements.


************************************

| x   Dead note
| g   Grace note
| (n) Ghost note
| h   Hammer-on
| p   Pull-off
| r   Release
| >   Accented note
| t   Tapping
| b   Bend
| br  Bend release
| pb  Pre-bend
| pbr Pre-bend release
| /   Slide up
| \   Slide down
| ~   Vibrato
| s   Slap
| P   Pop
| PM  Palm mute
| TR  Trill
| N   Tremolo

************************************
Добавлено: 13.11.2017
Другие материалы по этой песне:
  • Аккорды и текст

Страница создана 01.07.2012
http://primanota.ru/tom-petty/make-it-better-forget-about-me-chords.htm
Привет, Гость.
Предлагаем пройти революционный курс по гитаре.
Подарок от PrimaNota.Ru, забирай!