PrimaNota.ru - самый крупный в мире бесплатный архив песенных текстов, аккордов, табулатур и нот


Tokio Hotel - Schwarz Live - таба, видео

Регистрация Запомнить меня
Войти через:  Facebook Google Twitter Vk Yandex Mail.ru

Tokio Hotel - Schwarz Live - таба, видео

Печатать
Просмотров: 292
SCHWARZ(black) LIVE - Tokio Hotel

Tabbed by: Avrill 
e-mail   : avrill_xx@yahoo.com


[updated 25 january 2009 (and again the 31st of the same month)]
it should be pretty accurate by now xD


tuning: half step down (standard tuning with capo on the 3rd fret for the studio version)

  INTRO + VERSE
eb|----------------------------|
Bb|----------------------------|
Gb|----------------------------| 
Db|----2-----------------------|  x2
Ab|--3---3-2-2------------2----|
Eb|------------3--3-3-2-0---0--|

eb|----------------------------|
Bb|--1-----0-------------------|
Gb|--0-----0---0----------0----| 
Db|--2-----2---0----------2----|  x10
Ab|--3-----2---2----------2----|
Eb|--------0---3--3-3-2---0----|

 PRE-CHORUS
eb|--0-00000--0-000000---------|
Bb|--1-11111--0-000000---------|
Gb|--0-00000--0-000000---------|
Db|--2-22222--2-222222---------|
Ab|--3-33333--2-222222---------|
Eb|----------------------------|

 CHORUS
eb|--2--2-2--0-0-------------------|
Bb|--3--3-3--1-1-------------------|
Gb|--2--2-2--2-2--0--0-0-0-0-0-0---|
Db|--0--0-0--2-2--2--2-2-2-2-2-2---|  
Ab|----------0-0--2--2-2-2-2-2-2---|
Eb|---------------0--0-0-0-0-0-0---|

eb|--2--2-2--0-0-------------------|
Bb|--3--3-3--1-1-------------------|
Gb|--2--2-2--0-0--0--0-0-0-0-0-0---|
Db|--0--0-0--2-2--2--2-2-2-2-2-2---| 
Ab|----------3-3--2--2-2-2-2-2-2---|
Eb|---------------0--0-0-0-0-0-0---|

eb|--2--2-2--0-0-------------------|
Bb|--3--3-3--1-1-------------------|
Gb|--2--2-2--2-2--0--0-0-0-0-0-0---|
Db|--0--0-0--2-2--2--2-2-2-2-2-2---| 
Ab|----------0-0--2--2-2-2-2-2-2---|
Eb|---------------0--0-0-0-0-0-0---|

eb|--0-0-0-0-0-0-0--0-0-0-0-0-0-0--|
Bb|--1-1-1-1-1-1-1--0-0-0-0-0-0-0--|
Gb|--0-0-0-0-0-0-0--0-0-0-0-0-0-0--|
Db|--2-2-2-2-2-2-2--2-2-2-2-2-2-2--|
Ab|--3-3-3-3-3-3-3--3-3-3-3-3-3-3--|
Eb|--------------------------------|

 VERSE
eb|----------------------------|
Bb|--1-----0-------------------|
Gb|--0-----0---0----------0----| 
Db|--2-----2---0----------2----|  x8
Ab|--3-----2---2----------2----|
Eb|--------0---3--3-3-2---0----|


 PRE-CHORUS
eb|----------------------------|
Bb|--1-11111--0-000000---------|
Gb|--0-00000--0-000000---------|
Db|--2-22222--2-222222---------|
Ab|--3-33333--2-222222---------|
Eb|----------------------------|

 CHORUS
eb|--2--2-2--0-0-------------------|
Bb|--3--3-3--1-1-------------------|
Gb|--2--2-2--2-2--0--0-0-0-0-0-0---|
Db|--0--0-0--2-2--2--2-2-2-2-2-2---|  
Ab|----------0-0--2--2-2-2-2-2-2---|
Eb|---------------0--0-0-0-0-0-0---|


eb|--2--2-2--0-0-------------------|
Bb|--3--3-3--1-1-------------------|
Gb|--2--2-2--0-0--0--0-0-0-0-0-0---|
Db|--0--0-0--2-2--2--2-2-2-2-2-2---| 
Ab|----------3-3--2--2-2-2-2-2-2---|
Eb|---------------0--0-0-0-0-0-0---|

eb|--2--2-2--0-0-------------------|
Bb|--3--3-3--1-1-------------------|
Gb|--2--2-2--2-2--0--0-0-0-0-0-0---|
Db|--0--0-0--2-2--2--2-2-2-2-2-2---| 
Ab|----------0-0--2--2-2-2-2-2-2---|
Eb|---------------0--0-0-0-0-0-0---|

eb|--0-0-0-0-0-0-0--0-0-0-0-0-0-0--|
Bb|--1-1-1-1-1-1-1--0-0-0-0-0-0-0--|
Gb|--0-0-0-0-0-0-0--0-0-0-0-0-0-0--|
Db|--2-2-2-2-2-2-2--2-2-2-2-2-2-2--|
Ab|--3-3-3-3-3-3-3--3-3-3-3-3-3-3--|
Eb|--------------------------------|

 POST CHORUS
eb|----------------------------|
Bb|--1-----0-------------------|
Gb|--0-----0---0----------0----| 
Db|--2-----2---0----------2----|  x8
Ab|--3-----2---2----------2----|
Eb|--------0---3--3-3-2---0----|


 INTERLUDE
  guitar stops playing, bass continues

eb|----------------------------|
Bb|--1-----0-------------------|
Gb|--0-----0---0----------0----| 
Db|--2-----2---0----------2----|  x2
Ab|--3-----2---2----------2----|
Eb|--------0---3--3-3-2---0----|


 PRE-CHORUS
eb|--0-00000--0-000000---------|
Bb|--1-11111--0-000000---------|
Gb|--0-00000--0-000000---------|
Db|--2-22222--2-222222---------|
Ab|--3-33333--2-222222---------|
Eb|----------------------------|
 
CHORUS
eb|--------------------------------|
Bb|--------------------------------|
Gb|--------------------99999999----|
Db|--12121212--101010--99999999----| x3
Ab|--12121212--101010--77777777----|
Eb|--10101010--8-8-8---77777777----|

eb|-----------------------------------|
Bb|-----------------------------------|
Gb|-----------------------------------|
Db|--10101010101010--10101010101010---|  
Ab|--10101010101010--10101010101010---|
Eb|--8-8-8-8-8-8-8---7-7-7-7-7-7-7----|

eb|--------------------------------|
Bb|--------------------------------|
Gb|--------------------99999999----|
Db|--12121212--101010--99999999----| x3
Ab|--12121212--101010--77777777----|
Eb|--10101010--8-8-8---77777777----|


eb|-----------------------------------|
Bb|-----------------------------------|
Gb|-----------------------------------|
Db|--10101010101010--10101010101010---| x2 
Ab|--10101010101010--10101010101010---|
Eb|--8-8-8-8-8-8-8---7-7-7-7-7-7-7----|


Добавлено: 29.02.2012
Другие материалы по этой песне:
  • Аккорды и текст

Страница создана 29.02.2012
http://primanota.ru/tokio-hotel/schwarz-live-chords.htm
Привет, Гость.
Предлагаем пройти революционный курс по гитаре.
Подарок от PrimaNota.Ru, забирай!