PrimaNota.ru - самый крупный в мире бесплатный архив песенных текстов, аккордов, табулатур и нот


Thy Art Is Murder - Coffin Dragger - таба, видео

Регистрация Запомнить меня
Войти через:  Facebook Google Twitter Vk Yandex Mail.ru

Thy Art Is Murder - Coffin Dragger - таба, видео

Печатать
Просмотров: 176
-------------------------------------------------------------------------------
                             Coffin Digger - Thy Art is Murder
-------------------------------------------------------------------------------
This is my first tab. So sorry if the tab is not correct.

Tuning:AEADGBe

e|---------------------------------------------------------------------------|
B|--2-2-2-------------------------2-2-2------------------------2-2-2~--------|
G|--3-4-3-------------------------3-4-3------------------------3-4-3~--------|
D|--0-0-0-------------------------0-0-0------------------------0-0-0~--------|
A|--0-0-0-------------------------0-0-0------------------------0-0-0~--------|
E|--0-0-0-------------------------0-0-0------------------------0-0-0~--------|
A|---------000-0-0-0-0-000-0-000---------000-0-0-0-0-000-0-000---------------|

e|---------------------------------------------------------------------------|
B|--------2----------2-----2-------------------------------------------------|
G|--------3----------4-----3-------------------------------------------------|
D|--------0----------0-----0-------------------------------------------------|
A|--------0----------0-----0-------------------------------------------------|
E|--------0----------0-----0-------------------------------------------------|
A|1-0-1-0----1-0-1-0---1-0---------------------------------------------------|


| /   slide up
| \   slide down
| h   hammer-on
| p   pull-off
| ~   vibrato
| +   harmonic
| x   Mute note
| b   Bend
| pb  Pre-bend
| br  Bend release
| pbr Pre-bend release
| brb Bend release bend

************************************
Добавлено: 11.10.2015
Другие материалы по этой песне:
  • Аккорды и текст

Страница создана 11.10.2015
http://primanota.ru/thy-art-is-murder/coffin-dragger-chords.htm
Привет, Гость.
Предлагаем пройти революционный курс по гитаре.
Подарок от PrimaNota.Ru, забирай!