PrimaNota.ru - самый крупный в мире бесплатный архив песенных текстов, аккордов, табулатур и нот


Thy Art Is Murder - Infinite Forms - таба, видео

Регистрация Запомнить меня
Войти через:  Facebook Google Twitter Vk Yandex Mail.ru

Thy Art Is Murder - Infinite Forms - таба, видео

Печатать
Просмотров: 333
Tabbed By: mjhe23de
Youtube: mjhe23de
Instagram: mjhe23de
Soundcloud: mjhe23de
Email: Mjhe23deb@gmail.com
7 String
Tunig(Drop A)AEADGBE


E|--18--17----------------------------------------------17--21--22--18--17-18-|
B|----------18--------------------------------------18------------------------|
G|--------------19--15----------------------------19--------------------------|
D|----------------------19--15--------------15--19----------------------------|
A|------------------------------17------17------------------------------------|
E|----------------------------------18----------------------------------------|
A|----------------------------------------------------------------------------|

E|---------------------------------------|
B|17--17--18--15-------------------------|
G|---------------------------------------|
D|---------------------------------------|
A|---------------------------------------|
E|---------------------------------------|
A|---------------------------------------|

E|------------------15-------------------------------------------------------|
B|--14--15--17--18------18--17--15--14h17------------------------------------|
G|-----------------------------------------15--14--12---15--12---------------|
D|------------------------------------------------------15--12---------------|
A|--------------------------------------------------------------16--13--12---|
E|---------------------------------------------------------------------------|
A|---------------------------------------------------------------------------|

E|------------------------10--9----------|
B|-------------------------------11--10--|
G|---------------------------------------|
D|--------12--11-------------------------|
A|5--4v~----------13--12-----------------|
E|---------------------------------------|
A|---------------------------------------|

E|-18-17-18-15-18-13-18--18--18--18--18--18--18--18------|
B|---------------------17--15--14------------------------|
G|---------------------------------15--14----------------|
D|-----------------------------------------17--15--14----|
A|-------------------------------------------------------|
E|-------------------------------------------------------|
A|-------------------------------------------------------|

*Sweepssss*

E|--12--------------15--------------18--------------12-------------------|
B|------11--------------14--------------17--------------11---------------|
G|----------12--------------15--------------18--------------12-----------|
D|--------------14--------------17--------------20--------------14--12v~-|
A|-----------------------------------------------------------------------|
E|-----------------------------------------------------------------------|
A|-----------------------------------------------------------------------|

E|--------------------------------------13--15--17------22--21------------|(Full Bend)
B|--------------------------14--15--17--------------15v~------------------|
G|--------------12--14--15------------------------------------------------|
D|--12--14--15------------------------------------------------------------|
A|------------------------------------------------------------------------|
E|------------------------------------------------------------------------|
A|------------------------------------------------------------------------|

E|----------------------------------------------------------------------|
B|--------------------------------------------------15--15--------------|~(Double Up)
G|--------------14----------------------15--17--18------18--------------|~(Double Up)
D|--14--15--17------17--15--14--15--17----------------------------------|
A|----------------------------------------------------------------------|
E|----------------------------------------------------------------------|
A|----------------------------------------------------------------------|
Добавлено: 02.09.2013
Другие материалы по этой песне:

Страница создана 02.09.2013
http://primanota.ru/thy-art-is-murder/infinite-forms-chords.htm
Привет, Гость.
Предлагаем пройти революционный курс по гитаре.
Подарок от PrimaNota.Ru, забирай!