PrimaNota.ru - самый крупный в мире бесплатный архив песенных текстов, аккордов, табулатур и нот


Thrice - Call It In The Air - таба, видео

Регистрация Запомнить меня
Войти через:  Facebook Google Twitter Vk Yandex Mail.ru

Thrice - Call It In The Air - таба, видео

Печатать
Просмотров: 190
Tabbed by John Ceci (ceci.john@gmail.com)

This is my first tab ever created! Please let me know if you like it or if you think 
there are any mistakes. I am open to suggestions. Enjoy!

*EDIT - Special Thanks to user 'stretchmalone' for identifying a mistake in the 
verse. It has been corrected.

Song: Call it in the Air
Artist: Thrice
-------------------------

Tuning = Drop C (CGCFAD)

Legend:
~ = Hold
\ = Slide Forward
/ = Slide Backward
b = Full Step Bend
PM = Palm Mute

(Intro)
--------

Teppei (Clean w/Chorus effect) - Play 4x
|-------0-----------0-----------0-----------0------|
|-3-------3---1-------1---0-------0---0-------0----|
|---0-------0---0-------0---0-------0---0-------0--|
|-----2-----------2-----------2-----------2--------|
|--------------------------------------------------|
|--------------------------------------------------|


(Verse 1)
---------

Teppei (Clean w/Chorus effect) - Play 3x
|-------0-----------0-----------0-----------0------|
|-3-------3---1-------1---0-------0---0-------0----|
|---0-------0---0-------0---0-------0---0-------0--|
|-----2-----------2-----------2-----------2--------|
|--------------------------------------------------|
|--------------------------------------------------|

Dustin (Distortion) - Play 3x
|--------------------------------------------------|
|--------------------------------------------------|
|--------------------------------------------------|
|-9-9-9-9-9-9-9-9-9-9-9-9-9-9-9-9-9-9-9-9-9-9-9-9--|
|-7-7-7-7-7-7-7-7-7-7-7-7-7-7-7-7-7-7-7-7-7-7-7-7--|
|--------------------------------------------------|
  P P P P P P P P P P P P P P P P P P P P P P P P
  M M M M M M M M M M M M M M M M M M M M M M M M

  A coin tossed,
  Into the air,
  Will come down,


Teppei (Clean w/Chorus effect) - Play 1x
|-------0-----------0-----------0-----------0------|
|-3-------3---1-------1---0-------0---0-------0----|
|---0-------0---0-------0---0-------0---0-------0--|
|-----2-----------2-----------2-----------2--------|
|--------------------------------------------------|
|--------------------------------------------------|

Dustin (Distortion) - Play 1x
|--------------------------------------------------|
|--------------------------------------------------|
|--------------------------------------------------|
|-9-9-9-9-9----7~----------2~----------------------|
|-7-7-7-7-7----7~----------2~----------------------|
|--------------7~----------2~----------------------|
  P P P P P
  M M M M M

  It will come down some---where.


Teppei (Clean w/Chorus effect) - Play 3x
|-------0-----------0-----------0-----------0------|
|-3-------3---1-------1---0-------0---0-------0----|
|---0-------0---0-------0---0-------0---0-------0--|
|-----2-----------2-----------2-----------2--------|
|--------------------------------------------------|
|--------------------------------------------------|

Dustin (Distortion) - Play 3x
|--------------------------------------------------|
|--------------------------------------------------|
|--------------------------------------------------|
|-9-9-9-9-9-9-9-9-9-9-9-9-9-9-9-9-9-9-9-9-9-9-9-9--|
|-7-7-7-7-7-7-7-7-7-7-7-7-7-7-7-7-7-7-7-7-7-7-7-7--|
|--------------------------------------------------|
  P P P P P P P P P P P P P P P P P P P P P P P P
  M M M M M M M M M M M M M M M M M M M M M M M M

  And your life,
  Is a coin in the air,
  It will come down,


Teppei (Clean w/Chorus effect) - Play 1x
|-------0-----------0-----------0-----------0------|
|-3-------3---1-------1---0-------0---0-------0----|
|---0-------0---0-------0---0-------0---0-------0--|
|-----2-----------2-----------2-----------2--------|
|--------------------------------------------------|
|--------------------------------------------------|

Dustin (Distortion) - Play 1x
|--------------------------------------------------|
|--------------------------------------------------|
|--------------------------------------------------|
|-9-9-9-9-9----7~----------2~----------------------|
|-7-7-7-7-7----7~----------2~----------------------|
|--------------7~----------2~----------------------|
  P P P P P
  M M M M M

  It will come down some---where.


(Pre-Chorus)
------------

Teppei (Clean w/Chorus effect) - Play 4x
|-------0-----------0-----------0-----------0------|
|-3-------3---1-------1---0-------0---0-------0----|
|---0-------0---0-------0---0-------0---0-------0--|
|-----2-----------2-----------2-----------2--------|
|--------------------------------------------------|
|--------------------------------------------------|

Dustin (Distortion) - Play 2x
|----------------------------------------------------------------------------------------|
|----------------------------------------------------------------------------------------|
|----------------------------------------------------------------------------------------|
|-7-7-7-7-7-7-7-7-7-7-7-7-5-5-5-5-5-5-5-5-5-5-5-5-10-10-10-10-10-10-10-10-10-10-10-10-10-|
|-7-7-7-7-7-7-7-7-7-7-7-7-5-5-5-5-5-5-5-5-5-5-5-5-10-10-10-10-10-10-10-10-10-10-10-10-10-|
|-7-7-7-7-7-7-7-7-7-7-7-7-5-5-5-5-5-5-5-5-5-5-5-5-10-10-10-10-10-10-10-10-10-10-10-10-10-|

  Every coin does         ring,                   Every coin will          fall
  Stop your wa-----ver----ring,                   Now's the time so call   it      out.


(Verse 2)
---------

Teppei (Clean w/Chorus effect) - Play 3x
|-------0-----------0-----------0-----------0------|
|-3-------3---1-------1---0-------0---0-------0----|
|---0-------0---0-------0---0-------0---0-------0--|
|-----2-----------2-----------2-----------2--------|
|--------------------------------------------------|
|--------------------------------------------------|

Dustin (Distortion) - Play 3x
|--------------------------------------------------|
|--------------------------------------------------|
|--------------------------------------------------|
|-9-9-9-9-9-9-9-9-9-9-9-9-9-9-9-9-9-9-9-9-9-9-9-9--|
|-7-7-7-7-7-7-7-7-7-7-7-7-7-7-7-7-7-7-7-7-7-7-7-7--|
|--------------------------------------------------|
   P P P P P P P P P P P P P P P P P P P P P P P P
   M M M M M M M M M M M M M M M M M M M M M M M M

  A coin in the air
  It will come down


Teppei (Clean w/Chorus effect) - Play 1x
|-------0-----------0-----------0-----------0------|
|-3-------3---1-------1---0-------0---0-------0----|
|---0-------0---0-------0---0-------0---0-------0--|
|-----2-----------2-----------2-----------2--------|
|--------------------------------------------------|
|--------------------------------------------------|

Dustin (Distortion) - Play 1x
|--------------------------------------------------|
|--------------------------------------------------|
|--------------------------------------------------|
|-9-9-9-9-9---7~----------2~-----------------------|
|-7-7-7-7-7---7~----------2~-----------------------|
|-------------7~----------2~-----------------------|
  P P P P P
  M M M M M

  It will come down some--where.


(Pre-Chorus)
------------

Teppei (Clean w/Chorus effect) - Play 4x
|-------0-----------0-----------0-----------0------|
|-3-------3---1-------1---0-------0---0-------0----|
|---0-------0---0-------0---0-------0---0-------0--|
|-----2-----------2-----------2-----------2--------|
|--------------------------------------------------|
|--------------------------------------------------|

Dustin (Distortion) - Play 2x
|----------------------------------------------------------------------------------------|
|----------------------------------------------------------------------------------------|
|----------------------------------------------------------------------------------------|
|-7-7-7-7-7-7-7-7-7-7-7-7-5-5-5-5-5-5-5-5-5-5-5-5-10-10-10-10-10-10-10-10-10-10-10-10-10-|
|-7-7-7-7-7-7-7-7-7-7-7-7-5-5-5-5-5-5-5-5-5-5-5-5-10-10-10-10-10-10-10-10-10-10-10-10-10-|
|-7-7-7-7-7-7-7-7-7-7-7-7-5-5-5-5-5-5-5-5-5-5-5-5-10-10-10-10-10-10-10-10-10-10-10-10-10-|

  Every coin does         ring,                   Every coin will          fall
  Stop your wa-----ver----ring,                   Now's the time so call   it


(Chorus)
--------

Dustin and Teppei (Distortion w/Delay effect) - Play 1x
|----------------------------------------------------------------------------------------|
|-------------------------------------------b12--b12--b12--b12-----b10--b10--b10--b10----|
|--b9--b9--b9--b9-----b12--b12--b12--b12-------------------------------------------------|
|----------------------------------------------------------------------------------------|
|----------------------------------------------------------------------------------------|
|----------------------------------------------------------------------------------------|

   in                 the                   air.

|----------------------b10--b10--b10--b10------------------------------------------------|
|-b12--b12--b12--b12------------------------------------------------------10-------------|
|-------------------------------------------------10-----------12--------------------12--|
|----------------------------------------------------------------------------------------|
|----------------------------------------------------------------------------------------|
|----------------------------------------------------------------------------------------|

  You have to choose, and what you stand to lose, you've been putting up all of your life


Dustin and Teppei (Distortion w/Delay effect) - Play 1x
|----------------------------------------------------------------------------------------|
|-------------------------------------------b12--b12--b12--b12-----b10--b10--b10--b10----|
|--b9--b9--b9--b9-----b12--b12--b12--b12-------------------------------------------------|
|----------------------------------------------------------------------------------------|
|----------------------------------------------------------------------------------------|
|----------------------------------------------------------------------------------------|

   Call it in         my                    hand.

|----------------------b10--b10--b10--b10------------------------------------------------|
|-b12--b12--b12--b12------------------------------------------------------10-------------|
|-------------------------------------------------10-----------12--------------------12--|
|----------------------------------------------------------------------------------------|
|----------------------------------------------------------------------------------------|
|----------------------------------------------------------------------------------------|

  Only one way to see  what the outcome will be.  Call it out before we lose the light.


(Interlude)
------------

Dustin and Teppei (Distortion) - Play 2x
|-------------------------------------------------------------------------------------------|
|-------------------------------------------------------------------------------------------|
|-------------------------------------------------------------------------------------------|
|-2-2-2-2-2-2-2-2-2-2-2-2-2-2-2-2-5-5-5-5-0-1-1-1-1-1-1-1-1-1-1-1--/10-10-10-10-0-3-3-3-3-0-|
|-2-2-2-2-2-2-2-2-2-2-2-2-2-2-2-2-5-5-5-5-0-1-1-1-1-1-1-1-1-1-1-1--/10-10-10-10-0-3-3-3-3-0-|
|-2-2-2-2-2-2-2-2-2-2-2-2-2-2-2-2-5-5-5-5-0-1-1-1-1-1-1-1-1-1-1-1--/10-10-10-10-0-3-3-3-3-0-|



Teppei (Clean w/Chorus Effect)- Play 2x
|-------------------------------------------------------------------------------------------|
|---------------------------------3~--------------------------------------------------------|
|-4~------------------------------2~--------3-----------------------------------3/5-5-5-5-5-|
|-2~------------------------------0~--------1~----------------------------------1/3-3-3-3-3-|
|-2~------------------------------0~--------1~----------------------------------1/3-3-3-3-3-|
|-2~------------------------------2~--------1~----------------------------------1/3-3-3-3-3-|

Dustin (Distortion) - Play 2x
|-------------------------------------------------------------------------------------------|
|-------------------------------------------------------------------------------------------|
|-------------------------------------------------------------------------------------------|
|-2~-----------------------------\5~-------/1~---------------------------------/10~---------|
|-2~-----------------------------\5~-------/1~---------------------------------/10~---------|
|-2~-----------------------------\5~-------/1~---------------------------------/10~---------|



Teppei (Clean w/Chorus Effect)- Play 2x
|------------0------------------------------------------------------------------------------|
|-------3---------3--------3----------3----------3-----------3----------3-------------------|
|-----------------------------0----------0----------3-----------3----------3----3/5-5-5-5-5-|
|------------------------------------------------------1-----------1------------1/3-3-3-3-3-|
|-2-------------------2-----------5---------1-----------------------------------1/3-3-3-3-3-|
|-2-------------------2-----------5---------1-----------------------------------------------|

  No more stalling,   no          de--------lay
  You must call it    out                   by light of day.


(Pre-Chorus)
------------

Teppei (Clean w/Chorus effect) - Play 4x
|-------0-----------0-----------0-----------0------|
|-3-------3---1-------1---0-------0---0-------0----|
|---0-------0---0-------0---0-------0---0-------0--|
|-----2-----------2-----------2-----------2--------|
|--------------------------------------------------|
|--------------------------------------------------|

Dustin (Distortion) - Play 2x
|----------------------------------------------------------------------------------------|
|----------------------------------------------------------------------------------------|
|----------------------------------------------------------------------------------------|
|-7-7-7-7-7-7-7-7-7-7-7-7-5-5-5-5-5-5-5-5-5-5-5-5-10-10-10-10-10-10-10-10-10-10-10-10-10-|
|-7-7-7-7-7-7-7-7-7-7-7-7-5-5-5-5-5-5-5-5-5-5-5-5-10-10-10-10-10-10-10-10-10-10-10-10-10-|
|-7-7-7-7-7-7-7-7-7-7-7-7-5-5-5-5-5-5-5-5-5-5-5-5-10-10-10-10-10-10-10-10-10-10-10-10-10-|

  Every coin does         ring,                   Every coin will          fall
  Stop your wa-----ver----ring,                   Now's the time so call   it


(Chorus)
--------

Dustin and Teppei (Distortion w/Delay effect) - Play 1x
|----------------------------------------------------------------------------------------|
|-------------------------------------------b12--b12--b12--b12-----b10--b10--b10--b10----|
|--b9--b9--b9--b9-----b12--b12--b12--b12-------------------------------------------------|
|----------------------------------------------------------------------------------------|
|----------------------------------------------------------------------------------------|
|----------------------------------------------------------------------------------------|

   in                 the                   air.

|----------------------b10--b10--b10--b10------------------------------------------------|
|-b12--b12--b12--b12------------------------------------------------------10-------------|
|-------------------------------------------------10-----------12--------------------12--|
|----------------------------------------------------------------------------------------|
|----------------------------------------------------------------------------------------|
|----------------------------------------------------------------------------------------|

  You have to choose, and what you stand to lose, you've been putting up all of your life


Dustin and Teppei (Distortion w/Delay effect) - Play 1x
|----------------------------------------------------------------------------------------|
|-------------------------------------------b12--b12--b12--b12-----b10--b10--b10--b10----|
|--b9--b9--b9--b9-----b12--b12--b12--b12-------------------------------------------------|
|----------------------------------------------------------------------------------------|
|----------------------------------------------------------------------------------------|
|----------------------------------------------------------------------------------------|

   Call it in         my                    hand.

|----------------------b10--b10--b10--b10------------------------------------------------|
|-b12--b12--b12--b12------------------------------------------------------10-------------|
|-------------------------------------------------10-----------12--------------------12--|
|----------------------------------------------------------------------------------------|
|----------------------------------------------------------------------------------------|
|----------------------------------------------------------------------------------------|

  Only one way to see  what the outcome will be.  Call it out before we lose the light.


Dustin and Teppei (Distortion) - Play 4x
|-------------------------------------------------------------------------------------------|
|------3-3-------3-3-------3-3-------------------3-3-------3-3------------------------------|
|------2-2-------2-2-------2-2-------------------2-2-------2-2------------------------------|
|-2-2-------2-2-------2-2---------5-5-5-5-0-1-1-------1-1----------/10-10-10-10-0-3-3-3-3-0-|
|-2-2-------2-2-------2-2---------5-5-5-5-0-1-1-------1-1----------/10-10-10-10-0-3-3-3-3-0-|
|-2-2-------2-2-------2-2---------5-5-5-5-0-1-1-------1-1----------/10-10-10-10-0-3-3-3-3-0-|


      So heads  or tails?  There's nothing for it so put an end to your sidestepping.
      Is it heads or tails? You can't ignore it; You stand to win or lose everything.
      Heads       or      ta-------ils-------|     So put an end to your sidestepping.
      Heads       or      ta-------ils-------|     You stand to win or lose everything.



End
---
Добавлено: 24.11.2013
Другие материалы по этой песне:
  • Аккорды и текст

Страница создана 12.10.2013
http://primanota.ru/thrice/call-it-in-the-air-chords.htm
Привет, Гость.
Предлагаем пройти революционный курс по гитаре.
Подарок от PrimaNota.Ru, забирай!