PrimaNota.ru - самый крупный в мире бесплатный архив песенных текстов, аккордов, табулатур и нот


Thrice - Answered - таба, видео

Регистрация Запомнить меня
Войти через:  Facebook Google Twitter Vk Yandex Mail.ru

Thrice - Answered - таба, видео

Печатать
Просмотров: 101
-------------------------------------------------------------------------------
			     Answered - Thrice
-------------------------------------------------------------------------------
Tabbed by: Jason Paszek (Autopoietic Boy)
Email: J.W.Paszek.Guitar.Instruction@gmail.com

Tuning: Drop D (DADGBe)

Intro: 2x

e|---------------------------------------------------------------------------|
B|---7-------2------3--------------------------------------------------------|
G|---7-------2------4--------------------------------------------------------|
D|---9-------4------0--------------------------------------------------------|
A|--10-------5------2--------------------------------------------------------|
E|---------------------------------------------------------------------------|



Verse pt. 1:

e|--5------5---------5----5----7---------------------------------------------|
B|--7--------7---7---7-------7---7-------------------------------------------|
G|--9----------9-----9-------------------------------------------------------|
D|--0----------------0--------------2/4--4-4-4--4-2/4--4-4-4--4-2/4--4-4-4--4|
A|--0----------------0--------------2/4--4-4-4--4-2/4--4-4-4--4-2/4--4-4-4--4|
E|--0----------------0--------------2/4--4-4-4--4-2/4--4-4-4--4-2/4--4-4-4--4|

e|-----------------------------------------------------------------------------|
B|-----------------------------------------------------------------------------|
G|-----------------------------------------------------------------------------|
D|--2/4--4-4-4--4--------------------------------------------------------------|
A|--2/4--4-4-4--4--------------------------------------------------------------|
E|--2/4--4-4-4--4---Repeat 1x--------------------------------------------------|



Verse pt. 2:

e|---------------------------------------------------------------------------|
B|-----------------8---7--------------------7---5----------------------------|
G|--7-------6---------------7-------6----------------------------------------|
D|-----------------5---------------------------------------------------------|
A|--9-------4----------5----9-------4-------5---3----------------------------|
E|---------------------------------------------------------------------------|




Break:

e|---------------------------------------------------------------------------|
B|---------------------------------------------------------------------------|
G|---------------------------------------------------------------------------|
D|-2/4--4-4-4--4-2/4--4-4-4--4-2/4--4-4-4--4-2/4--4-4-4--4-------------------|
A|-2/4--4-4-4--4-2/4--4-4-4--4-2/4--4-4-4--4-2/4--4-4-4--4-------------------|
E|-2/4--4-4-4--4-2/4--4-4-4--4-2/4--4-4-4--4-2/4--4-4-4--4-------------------|



Verse 2 pt. 1:

e|--5------5---------5----5----7---------------------------------------------|
B|--7--------7---7---7-------7---7-------------------------------------------|
G|--9----------9-----9-------------------------------------------------------|
D|--0----------------0--------------2/4--4-4-4--4-2/4--4-4-4--4-2/4--4-4-4--4|
A|--0----------------0--------------2/4--4-4-4--4-2/4--4-4-4--4-2/4--4-4-4--4|
E|--0----------------0--------------2/4--4-4-4--4-2/4--4-4-4--4-2/4--4-4-4--4|

e|-----------------------------------------------------------------------------|
B|-----------------------------------------------------------------------------|
G|-----------------------------------------------------------------------------|
D|--2/4--4-4-4--4--------------------------------------------------------------|
A|--2/4--4-4-4--4--------------------------------------------------------------|
E|--2/4--4-4-4--4---Repeat 1x--------------------------------------------------|




e|--5------5---------5----5----7---------------------------------------------|
B|--7--------7---7---7-------7---7-------------------------------------------|
G|--9----------9-----9-------------------------------------------------------|
D|--0----------------0--------------2/4--4-4-4--4-2/4--4-4-4--4-2/4--4-4-4--4|
A|--0----------------0--------------2/4--4-4-4--4-2/4--4-4-4--4-2/4--4-4-4--4|
E|--0----------------0--------------2/4--4-4-4--4-2/4--4-4-4--4-2/4--4-4-4--4|

e|-----------------------------------------------------------------------------|
B|-----------------------------------------------------------------------------|
G|-----------------------------------------------------------------------------|
D|--2/4--4-4-4--4--------------------------------------------------------------|
A|--2/4--4-4-4--4--------------------------------------------------------------|
E|--2/4--4-4-4--4---Repeat 1x--------------------------------------------------|



Verse 2 pt. 2:

e|---------------------------------------------------------------------------|
B|-----------------8---7--------------------7---5----------------------------|
G|--7-------6---------------7-------6----------------------------------------|
D|-----------------5---------------------------------------------------------|
A|--9-------4----------5----9-------4-------5---3----------------------------|
E|---------------------------------------------------------------------------|



Interlude:

e|---------------------------------------------------------------------------|
B|---7-------2------3------7-----2-------------------------------------------|
G|---7-------2------4------7-----2-------------------------------------------|
D|---9-------4------0------9-----4-------------------------------------------|
A|--10-------5------2-----10-----5-------------------------------------------|
E|---------------------------------------------------------------------------|


Breakdown:

e|---------------------------------------------------------------------------|
B|---------------------------------------------------------------------------|
G|---------------------------------------------------------------------------|
D|-2/4--4-4-4--4-2/4--4-4-4--4-2/4--4-4-4--4-2/4--4-4-4--4-------------------|
A|-2/4--4-4-4--4-2/4--4-4-4--4-2/4--4-4-4--4-2/4--4-4-4--4-------------------|
E|-2/4--4-4-4--4-2/4--4-4-4--4-2/4--4-4-4--4-2/4--4-4-4--4-------------------|



Verse 3 pt. 1:

e|--5------5-----5---7----7--9-9---------------------------------------------|
B|--7--------7-------7-------------------------------------------------------|
G|--9----------9-----9-------------------------------------------------------|
D|--0----------------0--------------2/4--4-4-4--4-2/4--4-4-4--4-2/4--4-4-4--4|
A|--0----------------0--------------2/4--4-4-4--4-2/4--4-4-4--4-2/4--4-4-4--4|
E|--0----------------0--------------2/4--4-4-4--4-2/4--4-4-4--4-2/4--4-4-4--4|

e|-----------------------------------------------------------------------------|
B|-----------------------------------------------------------------------------|
G|-----------------------------------------------------------------------------|
D|--2/4--4-4-4--4--------------------------------------------------------------|
A|--2/4--4-4-4--4--------------------------------------------------------------|
E|--2/4--4-4-4--4---Repeat 1x--------------------------------------------------|



e|--5------7-----7---9-10-10-12-12-------------------------------------------|
B|--7--------7-------7-------------------------------------------------------|
G|--9----------9-----9-------------------------------------------------------|
D|--0----------------0--------------2/4--4-4-4--4-2/4--4-4-4--4-2/4--4-4-4--4|
A|--0----------------0--------------2/4--4-4-4--4-2/4--4-4-4--4-2/4--4-4-4--4|
E|--0----------------0--------------2/4--4-4-4--4-2/4--4-4-4--4-2/4--4-4-4--4|

e|-----------------------------------------------------------------------------|
B|-----------------------------------------------------------------------------|
G|-----------------------------------------------------------------------------|
D|--2/4--4-4-4--4--------------------------------------------------------------|
A|--2/4--4-4-4--4--------------------------------------------------------------|
E|--2/4--4-4-4--4---Repeat 1x--------------------------------------------------|


Outro:

e|-----------------------------------------------------------------------------|
B|--7------------------0-------------------------------------------------------|
G|--7----------6-------7-------------------------------------------------------|
D|--0----------4-------9-------------------------------------------------------|
A|--0----------4-------9-------------------------------------------------------|
E|--0----------4-------9------Repeat 3x----------------------------------------|




************************************

| /   slide up
| \   slide down
| h   hammer-on
| p   pull-off
| ~   vibrato
| +   harmonic
| x   Mute note
| b   Bend
| pb  Pre-bend
| br  Bend release
| pbr Pre-bend release
| brb Bend release bend

************************************
Добавлено: 12.09.2013
Другие материалы по этой песне:
  • Аккорды и текст

Страница создана 12.09.2013
http://primanota.ru/thrice/answered-chords.htm
Привет, Гость.
Предлагаем пройти революционный курс по гитаре.
Подарок от PrimaNota.Ru, забирай!