PrimaNota.ru - самый крупный в мире бесплатный архив песенных текстов, аккордов, табулатур и нот


Three Days Grace - So What - таба, видео

Регистрация Запомнить меня
Войти через:  Facebook Google Twitter Vk Yandex Mail.ru

Three Days Grace - So What - таба, видео

Печатать
Просмотров: 431
-------------------------------------------------------------------------------
                             So What - Three Days Grace
-------------------------------------------------------------------------------
Tabbed by: EliasGarciarena
For suggestions please e-mail me at: elias.garciarena@gmail.com

Tuning: Drop D ( D A D G B e )

00:00

e|---------------------------------------------------------------------------|
B|---------------------------------------------------------------------------|
G|-0~~-----------------------------------------------------------------------|
D|---------------------------------------------------------------------------|
A|---------------------------------------------------------------------------|
D|---------------------------------------------------------------------------|

00:03

e|---------------------------------------------------------------------------|
B|---------------------------------------------------------------------------|
G|---------------------------------------------------------------------------|
D|-0~-3~-5~-8~--0~-10~-8~---8-7-10-------------------------------------------|
A|-0~-3~-5~-8~--0~-10~-8~---8-7-10-------------------------------------------|
D|-0~-3~-5~-8~--0~-10~-8~---8-7-10-------------------------------------------|

00:17

e|---------------------------------------------------------------------------|
B|---------------------------------------------------------------------------|
G|----10----10----10---------------------------------------------------------|
D|-0-0---0-0---0-0---8-7-10--------------------------------------------------| x2
A|-0-0---0-0---0-0---8-7-10--------------------------------------------------|
D|-0-0---0-0---0-0---8-7-10--------------------------------------------------|

00:24

e|---------------------------------------------------------------------------|
B|---------------------------------------------------------------------------|
G|---10--10--10--10--10--10--------------------------------------------------|
D|-0~------------------------------------------------------------------------| x2
A|-0~------------------------------------------------------------------------|
D|-0~----------------------8-8-8-7-7-7-10-10-10-8-8-8-7----------------------|

00:37

e|---------------------------------------------------------------------------|
B|---------------------------------------------------------------------------|
G|---------------------------------------------------------------------------|
D|-8~---10~---13-13-13-13-13-13----------------------------------------------|
A|-8~---10~---13-13-13-13-13-13----------------------------------------------|
D|-8~---10~---13-13-13-13-13-13----------------------------------------------|

00:44

e|---------------------------------------------------------------------------|
B|---------------------------------------------------------------------------|
G|---------------------------------------------------------------------------|
D|-0-0-3-3-5-5-8-8--0-0-3-3-5-5-8-8------------------------------------------|
A|-0-0-3-3-5-5-8-8--0-0-3-3-5-5-8-8------------------------------------------|
D|-0-0-3-3-5-5-8-8--0-0-3-3-5-5-8-8------------------------------------------|

e|---------------------------------------------------------------------------|
B|---------------------------------------------------------------------------|
G|---------------------------------------------------------------------------|
D|-0-0-0-0-10-10-10-10-8-8-8-8-8--x-x-x-x-x--8-7-10--------------------------|
A|-0-0-0-0-10-10-10-10-8-8-8-8-8--x-x-x-x-x--8-7-10--------------------------|
D|-0-0-0-0-10-10-10-10-8-8-8-8-8--x-x-x-x-x--8-7-10--------------------------|

00:58

e|---------------------------------------------------------------------------|
B|---------------------------------------------------------------------------|
G|----10----10----10---------------------------------------------------------|
D|-0-0---0-0---0-0---8-7-10--------------------------------------------------| x2
A|-0-0---0-0---0-0---8-7-10--------------------------------------------------|
D|-0-0---0-0---0-0---8-7-10--------------------------------------------------|

01:04

e|---------------------------------------------------------------------------|
B|---------------------------------------------------------------------------|
G|---10--10--10--10--10--10--------------------------------------------------|
D|-0~------------------------------------------------------------------------| x2
A|-0~------------------------------------------------------------------------|
D|-0~----------------------8-8-8-7-7-7-10-10-10-8-8-8-7----------------------|

01:18

e|---------------------------------------------------------------------------|
B|---------------------------------------------------------------------------|
G|---------------------------------------------------------------------------|
D|-8~---10~---13-13-13-13-13-13----------------------------------------------|
A|-8~---10~---13-13-13-13-13-13----------------------------------------------|
D|-8~---10~---13-13-13-13-13-13----------------------------------------------|

01:25

e|---------------------------------------------------------------------------|
B|---------------------------------------------------------------------------|
G|---------------------------------------------------------------------------|
D|-0-0-3-3-5-5-8-8--0-0-3-3-5-5-8-8------------------------------------------|
A|-0-0-3-3-5-5-8-8--0-0-3-3-5-5-8-8------------------------------------------|
D|-0-0-3-3-5-5-8-8--0-0-3-3-5-5-8-8------------------------------------------|

e|---------------------------------------------------------------------------|
B|---------------------------------------------------------------------------|
G|---------------------------------------------------------------------------|
D|-0-0-0-0-10-10-10-10-8-8-8-8-8--x-x-x-x-x--8-7-10--------------------------|
A|-0-0-0-0-10-10-10-10-8-8-8-8-8--x-x-x-x-x--8-7-10--------------------------|
D|-0-0-0-0-10-10-10-10-8-8-8-8-8--x-x-x-x-x--8-7-10--------------------------|

01:38

e|---------------------------------------------------------------------------|
B|---------------------------------------------------------------------------|
G|----10----10----10---------------------------------------------------------|
D|-0-0---0-0---0-0---8-7-10--------------------------------------------------| x2
A|-0-0---0-0---0-0---8-7-10--------------------------------------------------|
D|-0-0---0-0---0-0---8-7-10--------------------------------------------------|

01:38 (Guitar 2)

e|---------------------------------------------------------------------------|
B|-15b~~~~-------------------------------------------------------------------|
G|---------------------------------------------------------------------------|
D|---------------------------------------------------------------------------|
A|---------------------------------------------------------------------------|
D|---------------------------------------------------------------------------|

01:45

e|-18h19~---18~---13~---12~----19~---18~---13~---15~-------------------------|
B|---------------------------------------------------------------------------|
G|---------------------------------------------------------------------------|
D|---------------------------------------------------------------------------|
A|---------------------------------------------------------------------------|
D|---------------------------------------------------------------------------|

e|-19~---18~-----------------------------------------------------------------|
B|-------------15b~~~~-------------------------------------------------------|
G|---------------------------------------------------------------------------|
D|---------------------------------------------------------------------------|
A|---------------------------------------------------------------------------|
D|---------------------------------------------------------------------------|

01:45 (Guitar 2)

e|---------------------------------------------------------------------------|
B|---------------------------------------------------------------------------|
G|---------------------------------------------------------------------------|
D|-5~--8~--0~--10~--5~--8~--0~--10~--8~--1~~---------------------------------|
A|-5~--8~--0~--10~--5~--8~--0~--10~--8~--1~~---------------------------------|
D|-5~--8~--0~--10~--5~--8~--0~--10~--8~--1~~---------------------------------|

02:02

e|---------------------------------------------------------------------------|
B|---------------------------------------------------------------------------|
G|---------------------------------------------------------------------------|
D|---------------------------------------------------------------------------|
A|---------------------------------------------------------------------------|
D|-0-0-0-0h5-7-8-7-5-0-0-0-0h5-7-8-10-8--------------------------------------|

e|---------------------------------------------------------------------------|
B|---------------------------------------------------------------------------|
G|---------------------------------------------------------------------------|
D|---------------------------------------------------------------------------|
A|---------------------------------------------------------------------------|
D|-0-0-0-0h5-7-8-7-5-8-8-8-5-5-5-10-10-10-7-7-7------------------------------|

e|---------------------------------------------------------------------------|
B|---------------------------------------------------------------------------|
G|---------------------------------------------------------------------------|
D|-0-0-0-0h5-7-8-7-5-0-0-0-5-7-8-10-8----------------------------------------|
A|---------------------------------------------------------------------------|
D|---------------------------------------------------------------------------|

e|---------------------------------------------------------------------------|
B|---------------------------------------------------------------------------|
G|---------------------------------------------------------------------------|
D|-0-0-0-0h5-7-8-7-5-8-5-10-7------------------------------------------------|
A|-------------------8-5-10-7------------------------------------------------|
D|-------------------8-5-10-7------------------------------------------------|

e|---------------------------------------------------------------------------|
B|---------------------------------------------------------------------------|
G|---------------------------------------------------------------------------|
D|-0-0-0-0h5-7-8-7-5-0-0-0-5-7-8-10-8----------------------------------------|
A|---------------------------------------------------------------------------|
D|---------------------------------------------------------------------------|

e|---------------------------------------------------------------------------|
B|---------------------------------------------------------------------------|
G|---------------------------------------------------------------------------|
D|-0-0-0-0h5-7-8-7-5----8-7-10-----------------------------------------------|
A|----------------------8-7-10-----------------------------------------------|
D|----------------------8-7-10-----------------------------------------------|



02:22

e|---------------------------------------------------------------------------|
B|---------------------------------------------------------------------------|
G|---------------------------------------------------------------------------|
D|-0-0-3-3-5-5-8-8--0-0-3-3-5-5-8-8------------------------------------------|
A|-0-0-3-3-5-5-8-8--0-0-3-3-5-5-8-8------------------------------------------|
D|-0-0-3-3-5-5-8-8--0-0-3-3-5-5-8-8------------------------------------------|

e|---------------------------------------------------------------------------|
B|---------------------------------------------------------------------------|
G|---------------------------------------------------------------------------|
D|-0-0-0-0-10-10-10-10-8-8-8-8-8-----8-7-10----------------------------------|
A|-0-0-0-0-10-10-10-10-8-8-8-8-8-----8-7-10----------------------------------|
D|-0-0-0-0-10-10-10-10-8-8-8-8-8-----8-7-10----------------------------------|

02:35

e|---------------------------------------------------------------------------|
B|---------------------------------------------------------------------------|
G|----10----10----10---------------------------------------------------------|
D|-0-0---0-0---0-0---8-7-10--------------------------------------------------| x2
A|-0-0---0-0---0-0---8-7-10--------------------------------------------------|
D|-0-0---0-0---0-0---8-7-10--------------------------------------------------|

02:42

e|---------------------------------------------------------------------------|
B|---------------------------------------------------------------------------|
G|------10------10------10---------------------------------------------------|
D|-0-0-0---0-0-0---0-0-0---8-7-10--------------------------------------------|
A|-0-0-0---0-0-0---0-0-0---8-7-10--------------------------------------------|
D|-0-0-0---0-0-0---0-0-0---8-7-10--------------------------------------------|

e|---------------------------------------------------------------------------|
B|---------------------------------------------------------------------------|
G|------10------10------10---------------------------------------------------|
D|-0-0-0---0-0-0---0-0-0---8-7-10\-------------------------------------------|
A|-0-0-0---0-0-0---0-0-0---8-7-10\-------------------------------------------|
D|-0-0-0---0-0-0---0-0-0---8-7-10\-------------------------------------------|


************************************

| /   slide up
| \   slide down
| h   hammer-on
| ~   vibrato
| x   Mute note
| b   Bend

************************************
Добавлено: 21.08.2015
Вам также может быть интересно:
Другие материалы по этой песне:
  • Аккорды и текст

Страница создана 21.08.2015
http://primanota.ru/three-days-grace/so-what-chords.htm
Привет, Гость.
Предлагаем пройти революционный курс по гитаре.
Подарок от PrimaNota.Ru, забирай!