PrimaNota.ru - самый крупный в мире бесплатный архив песенных текстов, аккордов, табулатур и нот


Three Days Grace - The End Is Not The Answer - таба, видео

Регистрация Запомнить меня
Войти через:  Facebook Google Twitter Vk Yandex Mail.ru

Three Days Grace - The End Is Not The Answer - таба, видео

Печатать
Просмотров: 236
-------------------------------------------------------------------------------
                    Three Days Grace - The End Is Not The Answer
-------------------------------------------------------------------------------
Tabbed by:amun130
E-mail:

Tuning:Drop C(CGCFAD)

Intro: (Clean Delay)
e|---------------------------------------------------------------------------|
B|---------------------------------------------------------------------------|
G|4-----3-----4-----3--------------------------------------------------------|
D|---------------------------------------------------------------------------|
A|---------------------------------------------------------------------------|
D|---------------------------------------------------------------------------|

Verse 1:
e|------------------------------------------------------------------------------------------------|
B|------------------------------------------------------------------------------------------------|
G|------------------------------------------------9--9--9-9---6--6--6-6---------------------------|
D|9--9--9-9---8--8--8-8---9--9--9-9---8--8--8-8---9--9--9-9---6--6--6-6-----9--9--9-9---8--8--8-8-|
A|6--6--6-6---6--6--6-6---6--6--6-6---6--6--6-6---7--7--7-7---4--4--4-4-----6--6--6-6---6--6--6-6-|
D|6--6--6-6---6--6--6-6---6--6--6-6---6--6--6-6-----------------------------6--6--6-6---6--6--6-6-|(x2)

Chorus 1:
e|--------------------|    |--------------------|
B|--------------------|    |--------------------|
G|6-6-----------------|    |--------------------|
D|6-6--6-6--7-7--9-9--|    |9--9-9----8--8-8----|
A|4-4--6-6--7-7--9-9--|    |6--6-6----6--6-6----|
D|-----6-6--7-7--9-9--|(x4)|6--6-6----6--6-6----|(x2) <- Pre-verse or something

Verse 2:
e|------------------------------------------------------------------------------------------------|
B|------------------------------------------------------------------------------------------------|
G|------------------------------------------------9--9--9-9---6--6--6-6---------------------------|
D|9--9--9-9---8--8--8-8---9--9--9-9---8--8--8-8---9--9--9-9---6--6--6-6-----9--9--9-9---8--8--8-8-|
A|6--6--6-6---6--6--6-6---6--6--6-6---6--6--6-6---7--7--7-7---4--4--4-4-----6--6--6-6---6--6--6-6-|
D|6--6--6-6---6--6--6-6---6--6--6-6---6--6--6-6-----------------------------6--6--6-6---6--6--6-6-|

Chorus 2:
e|--------------------|    
B|--------------------|   
G|6-6-----------------|   
D|6-6--6-6--7-7--9-9--|    
A|4-4--6-6--7-7--9-9--|    
D|-----6-6--7-7--9-9--|(x4)

Bridge:
e|--------------------|    
B|--------------------|    
G|6~------------------|    
D|6~--9~--6~--7~------|    
A|4~--9~--6~--7~------|    
D|----9~--6~--7~------|(x6) Then you have second part of bridge only with bass


Chorus 3:
e|--------------------|    
B|--------------------|   
G|6-6-----------------|   
D|6-6--6-6--7-7--9-9--|    
A|4-4--6-6--7-7--9-9--|    
D|-----6-6--7-7--9-9--|(x8)

Outro:
e|-----------------------|
B|-----------------------|
G|-----------------------|
D|9--9--9-9---8--8--8-8--|
A|6--6--6-6---6--6--6-6--|
D|6--6--6-6---6--6--6-6--|(x4)

************************************

| /   slide up
| \   slide down
| h   hammer-on
| p   pull-off
| ~   vibrato
| +   harmonic
| x   Mute note
| b   Bend
| pb  Pre-bend
| br  Bend release
| pbr Pre-bend release
| brb Bend release bend

************************************
Добавлено: 25.04.2016
Другие материалы по этой песне:
  • Аккорды и текст

Страница создана 25.04.2016
http://primanota.ru/three-days-grace/end-is-not-answer-chords.htm
Привет, Гость.
Предлагаем пройти революционный курс по гитаре.
Подарок от PrimaNota.Ru, забирай!