PrimaNota.ru - самый крупный в мире бесплатный архив песенных текстов, аккордов, табулатур и нот


Thousand Foot Krutch - This Is A Warning - таба, видео

Регистрация Запомнить меня
Войти через:  Facebook Google Twitter Vk Yandex Mail.ru

Thousand Foot Krutch - This Is A Warning - таба, видео

Печатать
Просмотров: 199
Уроки эстрадного вокала в Санкт-Петербурге
-------------------------------------------------------------------------------
               This Is A Warning (Intro) - Thousand Foot Krutch
-------------------------------------------------------------------------------
Tabbed by: StevenBeaven90
E-mail: stevenkotelnikov@Gmail.com
Feel free to email me if you have any questions about this tab or any other of my tabs.

Tuning: Drop B

Note: The "String 2" in this tab is the same for the lead guitar in Thousand Foot 
Krutch's "Courtesy Call" which I tabbed as well.

String 1
(0:10-0:22)
C#|--------------------------------------------------------------------------|
G#|--------------------------------------------------------------------------|
E|---------------------------------------------------------------------------|
b|---------------------------------------------------------------------------|
F#|--------------------------------------------------------------------------|
B|--0-0-0-0-0-0-0-0-0-0-0-0-0-0-0-0-8-0-8-0-8-0-8-0-11-0-11-0-11-0-11-0------|

(0:22-0:34)
C#|--------------------------------------------------------------------------|
G#|--------------------------------------------------------------------------|
E|---------------------------------------------------------------------------|
b|---------------------------------------------------------------------------|
F#|--------------------------------------------------------------------------|
B|--0-0-0-0-0-0-0-0-0-0-0-0-0-0-0-0-0-0-0-0-0-0-0-0-0-0-0-0-0-0-0-0----------|

(0:34-0:46)
C#|--------------------------------------------------------------------------|
G#|--------------------------------------------------------------------------|
E|---------------------------------------------------------------------------|
b|---------------------------------------------------------------------------|
F#|--------------------------------------------------------------------------|
B|--0-0-0-0-0-0-0-0-0-0-0-0-0-0-0-0-8-0-8-0-8-0-8-0-11-0-11-0-11-0-11-0------|

String 2 (x3)
(0:22-0:40) 
C#|-10--8--6--5-------------10--8--6--5--------------------------------------|
G#|--------------6--5--6-----------------6--8--6-----------------------------|
E|---------------------------------------------------------------------------|
b|---------------------------------------------------------------------------|
F#|--------------------------------------------------------------------------|
B|---------------------------------------------------------------------------|

(0:40-0:46)
C#|-10--8--6--5-------------10--8--6--5--------------------------------------|
G#|--------------6--5--6-----------------6--5--6-----------------------------|
E|---------------------------------------------------------------------------|
b|---------------------------------------------------------------------------|
F#|--------------------------------------------------------------------------|
B|---------------------------------------------------------------------------|

************************************

| /   slide up
| \   slide down
| x   Mute note

************************************
Добавлено: 10.07.2015
Другие материалы по этой песне:
  • Аккорды и текст

Страница создана 10.07.2015
http://primanota.ru/thousand-foot-krutch/this-is-a-warning-chords.htm
Привет, Гость.
Предлагаем пройти революционный курс по гитаре.
Подарок от PrimaNota.Ru, забирай!