PrimaNota.ru - самый крупный в мире бесплатный архив песенных текстов, аккордов, табулатур и нот


Thousand Foot Krutch - Feel The Place Go Boom - таба, видео

Регистрация Запомнить меня
Войти через:  Facebook Google Twitter Vk Yandex Mail.ru

Thousand Foot Krutch - Feel The Place Go Boom - таба, видео

Печатать
Просмотров: 251
Уроки эстрадного вокала в Санкт-Петербурге
-------------------------------------------------------------------------------
                 Feel The Place Go Boom - Thousand Foot Krutch
-------------------------------------------------------------------------------
Tabbed by: StevenBeaven90
E-mail: stevenkotelnikov@Gmail.com
Feel free to email me if you have any questions about this tab or any other of my tabs.

Tuning: Drop B

[Intro](0:00-0:10)
Lead Guitar
C#|--------------------------------------------------------------------------|
G#|--------------------------------------------------------------------------|
E|--13---------------------13----------------13/14\13------------------------|
B|-------14--12-12-14-----------14--12-12-14---------------------------------|
F#|-------------------14-----------------------------------------------------|
B|---------------------------------------------------------------------------|

C#|--------------------------------------------------------------------------|
G#|--------------------------------------------------------------------------|
E|--13---------------------13------------------------------------------------|
B|-------14--12-12-14-----------14--12-12-14---------------------------------|
F#|-------------------14-----------------------------------------------------|
B|---------------------------------------------------------------------------|

Rhythm Guitar (Starts @ 0:05)
C#|--------------------------------------------------------------------------|
G#|--------------------------------------------------------------------------|
E|----------------------------------------------------------9----------------|
B|--0-2-2-2-2-2-0-2-2-2-2-2-2-2-2-2-0-2-2-2-2-2-0-2-2-2-2-2-9----------------|
F#|-0-2-2-2-2-2-0-2-2-2-2-2-2-2-2-2-0-2-2-2-2-2-0-2-2-2-2-2-7----------------|
B|--0-2-2-2-2-2-0-2-2-2-2-2-2-2-2-2-0-2-2-2-2-2-0-2-2-2-2-2------------------|
(All chords except the last "7-9-9" chord are palm-muted)

[Chorus I](0:10-0:34)(x2)
Rhythm Guitar
C#|--------------------------------------------------------------------------|
G#|--------------------------------------------------------------------------|
E|---------------------------------------------------------------------------|
B|--2----x-x--x-5-5-5-5-5-7--------------------------------------------------|
F#|-2----x-x--x-5-5-5-5-5-7--------------------------------------------------|
B|--2----x-x--x-5-5-5-5-5-7--------------------------------------------------|

C#|--------------------------------------------------------------------------|
G#|--------------------------------------------------------------------------|
E|---------------------------------------------------------------------------|
B|-x-2----x-x--x-7-7-7-7-7-5-------------------------------------------------|
F#|x-2----x-x--x-7-7-7-7-7-5-------------------------------------------------|
B|-x-2----x-x--x-7-7-7-7-7-5-------------------------------------------------|

C#|--------------------------------------------------------------------------|
G#|--------------------------------------------------------------------------|
E|---------------------------------------------------------------------------|
B|-x-2----x-x--x-5-5-5-5-5-7-------------------------------------------------|
F#|x-2----x-x--x-5-5-5-5-5-7-------------------------------------------------|
B|-x-2----x-x--x-5-5-5-5-5-7-------------------------------------------------|

C#|--------------------------------------------------------------------------|
G#|--------------------------------------------------------------------------|
E|---------------------------------------------------------------------------|
B|---------------------------------------------------------------------------|
F#|--------------------------------------------------------------------------|
B|--0-5-5-5-5-0--0-0-2-2-2-2-0-----------------------------------------------|

[Verse I](0:34-0:45)(All chords are palm-muted)
Rhythm Guitar
C#|--------------------------------------------------------------------------|
G#|--------------------------------------------------------------------------|
E|---------------------------------------------------------------------------|
B|--0-2-2-2-2-2---0-0-2-2-2-2-2---0-0-2-2-2-2-2---0-7-7-7-7-5-0--------------|
F#|-0-2-2-2-2-2---0-0-2-2-2-2-2---0-0-2-2-2-2-2---0-7-7-7-7-5-0--------------|
B|--0-2-2-2-2-2---0-0-2-2-2-2-2---0-0-2-2-2-2-2---0-7-7-7-7-5-0--------------|

C#|--------------------------------------------------------------------------|
G#|--------------------------------------------------------------------------|
E|---------------------------------------------------------------------------|
B|-0-0-2-2-2-2-2---0-0-2-2-2-2-2---0-0-2-2-2-2-2---0-5-5-5-5-2-0-------------|
F#|0-0-2-2-2-2-2---0-0-2-2-2-2-2---0-0-2-2-2-2-2---0-5-5-5-5-2-0-------------|
B|-0-0-2-2-2-2-2---0-0-2-2-2-2-2---0-0-2-2-2-2-2---0-5-5-5-5-2-0-------------|

[Pre-chorus I](0:45-0:56)
Rhythm Guitar
C#|--------------------------------------------------------------------------|
G#|--------------------------------------------------------------------------|
E|---------------------------------------------------------------------------|
B|---------------------------------------------------------------------------|
F#|--------------------------------------------------------------------------|
B|--0-2-2--2-2--0-0-2-2--2-2--0-0-2-2--2-2--0-5-5-5---0-2-0------------------|

C#|--------------------------------------------------------------------------|
G#|--------------------------------------------------------------------------|
E|---------------------------------------------------9-----------------------|
B|---------------------------------------------------9-----------------------|
F#|--------------------------------------------------7-----------------------|
B|--0-2-2--2-2--0-0-2-2--2-2--0-0-2-2--2-2--0-7-7-7--------------------------|

[Chorus II](0:56-1:19)(Same as Chorus I)

[Verse II](1:19-1:41)(All chords are palm-muted)
Rhythm Guitar
C#|--------------------------------------------------------------------------|
G#|--------------------------------------------------------------------------|
E|---------------------------------------------------------------------------|
B|--0-2-2-2-2-2---0-0-2-2-2-2-2---0-0-2-2-2-2-2---0-7-7-7-7-5-0--------------|
F#|-0-2-2-2-2-2---0-0-2-2-2-2-2---0-0-2-2-2-2-2---0-7-7-7-7-5-0--------------|
B|--0-2-2-2-2-2---0-0-2-2-2-2-2---0-0-2-2-2-2-2---0-7-7-7-7-5-0--------------|

C#|--------------------------------------------------------------------------|
G#|--------------------------------------------------------------------------|
E|---------------------------------------------------------------------------|
B|-0-0-2-2-2-2-2---0-0-2-2-2-2-2---0-0-2-2-2-2-2---0-5-5-5-5-2-0-------------|
F#|0-0-2-2-2-2-2---0-0-2-2-2-2-2---0-0-2-2-2-2-2---0-5-5-5-5-2-0-------------|
B|-0-0-2-2-2-2-2---0-0-2-2-2-2-2---0-0-2-2-2-2-2---0-5-5-5-5-2-0-------------|

C#|--------------------------------------------------------------------------|
G#|--------------------------------------------------------------------------|
E|---------------------------------------------------------------------------|
B|-0-0-2-2-2-2-2---0-0-2-2-2-2-2---0-0-2-2-2-2-2---0-7-7-7-7-5-0-------------|
F#|0-0-2-2-2-2-2---0-0-2-2-2-2-2---0-0-2-2-2-2-2---0-7-7-7-7-5-0-------------|
B|-0-0-2-2-2-2-2---0-0-2-2-2-2-2---0-0-2-2-2-2-2---0-7-7-7-7-5-0-------------|

C#|--------------------------------------------------------------------------|
G#|--------------------------------------------------------------------------|
E|---------------------------------------------------------------------------|
B|-0-0-2-2-2-2-2---0-0-2-2-2-2-2---0-0-2-2-2-2-2---0-5-5---------------------|
F#|0-0-2-2-2-2-2---0-0-2-2-2-2-2---0-0-2-2-2-2-2---0-5-5---------------------|
B|-0-0-2-2-2-2-2---0-0-2-2-2-2-2---0-0-2-2-2-2-2---0-5-5---------------------|

[Pre-chorus II](1:41-1:53)(Same as Pre-chorus I)

[Chorus III](1:53-2:15)(Same as Chorus I)

[Bridge](2:15-2:26)
Rhythm Guitar
C#|--------------------------------------------------------------------------|
G#|--------------------------------------------------------------------------|
E|---------------------------------------------------------------------------|
B|---------------------------------------------------------------------------|
F#|--------------------------------------------------------------------------|
B|--0---6-\-3--2-2-2-2-2-3---0-0---6-\-3--2-2-2-2-2-3-0----------------------|

C#|--------------------------------------------------------------------------|
G#|--------------------------------------------------------------------------|
E|------------------------------------------------9--------------------------|
B|------------------------------------------------9--------------------------|
F#|-----------------------------------------------7--------------------------|
B|--0---6-\-3--2-2-2-2-2-3---0-0---6-\-3--2-2-2-2----------------------------|

[Chorus IV](2:26-2:49)(Same as Chorus I)

[Outroduction](2:49-3:11)
Rhythm Guitar (only plays 2:49-3:00)
C#|--------------------------------------------------------------------------|
G#|--------------------------------------------------------------------------|
E|---------------------------------------------------------------------------|
B|--2----x-x--x-5-5-5-5-5-7--------------------------------------------------|
F#|-2----x-x--x-5-5-5-5-5-7--------------------------------------------------|
B|--2----x-x--x-5-5-5-5-5-7--------------------------------------------------|

C#|--------------------------------------------------------------------------|
G#|--------------------------------------------------------------------------|
E|---------------------------------------------------------------------------|
B|-x-2----x-x--x-7-7-7-7-7-5-------------------------------------------------|
F#|x-2----x-x--x-7-7-7-7-7-5-------------------------------------------------|
B|-x-2----x-x--x-7-7-7-7-7-5-------------------------------------------------|

C#|--------------------------------------------------------------------------|
G#|--------------------------------------------------------------------------|
E|---------------------------------------------------------------------------|
B|-x-2----x-x--x-5-5-5-5-5-7-------------------------------------------------|
F#|x-2----x-x--x-5-5-5-5-5-7-------------------------------------------------|
B|-x-2----x-x--x-5-5-5-5-5-7-------------------------------------------------|

C#|--------------------------------------------------------------------------|
G#|--------------------------------------------------------------------------|
E|---------------------------------------------------------------------------|
B|---------------------------------------------------------------------------|
F#|--------------------------------------------------------------------------|
B|--0-5-5-5-5-0--0-0-2-2-2-2-0-----------------------------------------------|

Lead Guitar
C#|--------------------------------------------------------------------------|
G#|--------------------------------------------------------------------------|
E|--13---------------------13----------------13/14\13------------------------|
B|-------14--12-12-14-----------14--12-12-14---------------------------------|
F#|-------------------14-----------------------------------------------------|
B|---------------------------------------------------------------------------|

C#|--------------------------------------------------------------------------|
G#|--------------------------------------------------------------------------|
E|--13-----------------------------------------------------------------------|
B|-------14--12-12-14--------------------------------------------------------|
F#|-------------------14-----------------------------------------------------|
B|---------------------------------------------------------------------------|

C#|--------------------------------------------------------------------------|
G#|--------------------------------------------------------------------------|
E|--13---------------------13----------------13/14\13------------------------|
B|-------14--12-12-14-----------14--12-12-14---------------------------------|
F#|-------------------14-----------------------------------------------------|
B|---------------------------------------------------------------------------|

C#|--------------------------------------------------------------------------|
G#|--------------------------------------------------------------------------|
E|--13---------------------13----------13------------------------------------|
B|-------14--12-12-14-----------14--12---------------------------------------|
F#|-------------------14-----------------------------------------------------|
B|---------------------------------------------------------------------------|

************************************
| /   slide up
| \   slide down
| x   Mute note
************************************
Добавлено: 10.07.2015
Другие материалы по этой песне:
  • Аккорды и текст

Страница создана 10.07.2015
http://primanota.ru/thousand-foot-krutch/feel-place-go-boom-chords.htm
Привет, Гость.
Предлагаем пройти революционный курс по гитаре.
Подарок от PrimaNota.Ru, забирай!