PrimaNota.ru - самый крупный в мире бесплатный архив песенных текстов, аккордов, табулатур и нот


Thousand Foot Krutch - The River - таба, видео

Регистрация Запомнить меня
Войти через:  Facebook Google Twitter Vk Yandex Mail.ru

Thousand Foot Krutch - The River - таба, видео

Печатать
Просмотров: 79
Новый альбом группы 'Черный Кузнец' по культовому сериалу 'Сверхъестественное'!
Michael Glodoski
Iamnumbe12@live.com

Drop B 

Guitar 1

Verse 1
C#|------------------------------------------------------------------------|
G#|------------------------------------------------------------------------|
E |------------------------------------------------------------------------|
B |------------------------------------------------------------------------|
G#|------------------------------------------------------------------------|
G |-0-0--0-0-0-3-0-3-0-0--0-0-0-3-0-3-0--0-0-0-3-0-3-0--0-0--0-0-0-3-0-3-6-|

C#|----------------------------------------------------------------------|
G#|----------------------------------------------------------------------|
E |----------------------------------------------------------------------|
B |----------------------------------------------------------------------|
G#|----------------------------------------------------------------------|
B |-0-0-0-3-0-3-0--0-0--0-0-0-3-0-3-0--0-0-0-3-0-3-0--0-0--0-0-0-3-0-3-6-| 

C#|-----------------------------------------------------------------|
G#|-----------------------------------------------------------------|
E |-----------------------------------------------------------------|
B |-0-0-0-3-0-3-0-0--0-0-0-3-0-3-0--0-0-0-3-0-3-0-0--0-0-0-3-9-3-6--|
F#|-0-0-0-3-0-3-0-0--0-0-0-3-0-3-0--0-0-0-3-0-3-0-0--0-0-0-3-9-3-6--|
B |-0-0-0-3-0-3-0-0--0-0-0-3-0-3-0--0-0-0-3-0-3-0-0--0-0-0-3-9-3-6--|

C#|-------------------------------------------------------------------|
G#|-------------------------------------------------------------------|
E |-------------------------------------------------------------------|
B |-0-0-0-3-0-3-0-0--0-0-0-3-0-3-0--0-0-0-3-0-3-0--0-0--0-0-0-3-0-3-6-|
F#|-0-0-0-3-0-3-0-0--0-0-0-3-0-3-0--0-0-0-3-0-3-0--0-0--0-0-0-3-0-3-6-|
B |-0-0-0-3-0-3-0-0--0-0-0-3-0-3-0--0-0-0-3-0-3-0--0-0--0-0-0-3-0-3-6-|


Verse 2
C#|-------------------------------------------------------------------|
G#|-------------------------------------------------------------------|
E |-------------------------------------------------------------------|
B |-------------------------------------------------------------------|
G#|-------------------------------------------------------------------|
G |-0-0-0-3-0-3-0-0--0-0-0-3-0-3-0--0-0-0-3-0-3-0--0-0--0-0-0-3-0-3-6-|

C#|------------------------------------------------------------------|
G#|------------------------------------------------------------------|
E |------------------------------------------------------------------|
B |------------------------------------------------------------------|
G#|------------------------------------------------------------------|
B |-0-3-0-3-0--0-0--0-0-0-3-0-3-0--0-0-0-3-0-3-0--0-0--0-0-0-3-0-3-6-| 

C#|-----------------------------------------------------------------|
G#|-----------------------------------------------------------------|
E |-----------------------------------------------------------------|
B |-0-0-0-3-0-3-0-0--0-0-0-3-0-3-0--0-0-0-3-0-3-0-0--0-0-0-3-0-3-6--|
F#|-0-0-0-3-0-3-0-0--0-0-0-3-0-3-0--0-0-0-3-0-3-0-0--0-0-0-3-0-3-6--|
B |-0-0-0-3-0-3-0-0--0-0-0-3-0-3-0--0-0-0-3-0-3-0-0--0-0-0-3-0-3-6--|

C#|---------------------------------------------------------------|
G#|---------------------------------------------------------------|
E |---------------------------------------------------------------|
B |-0-0-0-3-0-3-0-0--0-0-0-3-0-3-0--0-0-0-3-0-3-0--0-0--0-0-0-3-0-|
F#|-0-0-0-3-0-3-0-0--0-0-0-3-0-3-0--0-0-0-3-0-3-0--0-0--0-0-0-3-0-|
B |-0-0-0-3-0-3-0-0--0-0-0-3-0-3-0--0-0-0-3-0-3-0--0-0--0-0-0-3-0-|

Chorus 1
C#|------------------------------------------------------------------------------------------------|
G#|------------------------------------------------------------------------------------------------|
E |------------------------------------------------------------------------------------------------|
B |-6-6-5-3-0-x-x-0-x-0-3-5-6-6-5-3-0-x-x-0-x-0-3-5-6-6-5-3-0-x-x-0-x-0-3-5-5-5-5-5-10-10-10-------|
F#|-6-6-5-3-0-x-x-0-x-0-3-5-6-6-5-3-0-x-x-0-x-0-3-5-6-6-5-3-0-x-x-0-x-0-3-5-5-5-5-5-10-10-10-------|
B |-6-6-5-3-0-x-x-0-x-0-3-5-6-6-5-3-0-x-x-0-x-0-3-5-6-6-5-3-0-x-x-0-x-0-3-5-5-5-5-5-10-10-10-0-3-5-|

C#|------------------------------------------------------------------------------------------------|
G#|------------------------------------------------------------------------------------------------|
E |------------------------------------------------------------------------------------------------|
B |-6-6-5-3-0-x-x-0-x-0-3-5-6-6-5-3-12-x-x-0-x-0-3-5-6-6-5-3-0-x-x-0-x-0-3-5-5-5-5-5-10-10-10-------|
F#|-6-6-5-3-0-x-x-0-x-0-3-5-6-6-5-3-12-x-x-0-x-0-3-5-6-6-5-3-0-x-x-0-x-0-3-5-5-5-5-5-10-10-10-------|
B |-6-6-5-3-0-x-x-0-x-0-3-5-6-6-5-3-12-x-x-0-x-0-3-5-6-6-5-3-0-x-x-0-x-0-3-5-5-5-5-5-10-10-10-0-3-5-|

C#|--------------------------------------------------------------------------|
G#|--------------------------------------------------------------------------|
E |--------------------------------------------------------------------------|
B |-6-5-3-12\-0-3-5--6-5-3-0-3-5-----------6-5-3-12\-0-3-5--3--5--0--3--5--0-|
F#|-6-5-3-12\-0-3-5--6-5-3-0-3-5--3-3-3-3--6-5-3-12\-0-3-5--3--5--0--3--5--0-|
B |-6-5-3-12\-0-3-5--6-5-3-0-3-5-----------6-5-3-12\-0-3-5--3--5--0--3--5--0-|

Verse 3
C#|-------------------------------------------------------------------|
G#|-------------------------------------------------------------------|
E |-------------------------------------------------------------------|
B |-------------------------------------------------------------------|
G#|-------------------------------------------------------------------|
G |-0-0-0-3-0-3-0-0--0-0-0-3-0-3-0--0-0-0-3-0-3-0--0-0--0-0-0-3-0-3-6-|

C#|----------------------------------------------------------------------|
G#|----------------------------------------------------------------------|
E |----------------------------------------------------------------------|
B |----------------------------------------------------------------------|
G#|----------------------------------------------------------------------|
B |-0-0-0-3-0-3-0--0-0--0-0-0-3-0-3-0--0-0-0-3-0-3-0--0-0--0-0-0-3-0-3-6-| 

C#|-----------------------------------------------------------------|
G#|-----------------------------------------------------------------|
E |-----------------------------------------------------------------|
B |-0-0-0-3-0-3-0-0--0-0-0-3-0-3-0--0-0-0-3-0-3-0-0--0-0-0-3-9-3-6--|
F#|-0-0-0-3-0-3-0-0--0-0-0-3-0-3-0--0-0-0-3-0-3-0-0--0-0-0-3-9-3-6--|
B |-0-0-0-3-0-3-0-0--0-0-0-3-0-3-0--0-0-0-3-0-3-0-0--0-0-0-3-9-3-6--|

C#|-------------------------------------------------------------------|
G#|-------------------------------------------------------------------|
E |-------------------------------------------------------------------|
B |-0-0-0-3-0-3-0-0--0-0-0-3-0-3-0--0-0-0-3-0-3-0--0-0--0-0-0-3-0-3-6-|
F#|-0-0-0-3-0-3-0-0--0-0-0-3-0-3-0--0-0-0-3-0-3-0--0-0--0-0-0-3-0-3-6-|
B |-0-0-0-3-0-3-0-0--0-0-0-3-0-3-0--0-0-0-3-0-3-0--0-0--0-0-0-3-0-3-6-|


Verse 4:
C#|-----------------------------------------------------------------------------|
G#|---------------------------------------------------------------------------6-|
E |---------------------------------------------------------------------------4-|
B |---------------------------------------------------------------------------6-|
G#|----------------------------------3h5-5-5----------------------------------5-|
G |-0-0-0-3-0-3-0--0-0--0-0-0-3-0-3-----------0-0-0-3-0-3-0--0-0--0-0-0-3-0-3---|

C#|-------------------------------------------------------------------------|
G#|-------------------------------------------------------------------------|
E |-------------------------------------------------------------------------|
B |-------------------------------------------------------------------------|
G#|------------------------------3h5-5-5------------------------------------|
G |-0-0-0-3-0-3-0-0--0-0-0-3-0-3----------0-0-0-3-0-3-0--0-0--0-0-0-3-0-3-6-|

C#|-----------------------------------------------------------------|
G#|-----------------------------------------------------------------|
E |-----------------------------------------------------------------|
B |-0-0-0-3-0-3-0-0--0-0-0-3-0-3-0--0-0-0-3-0-3-0-0--0-0-0-3-0-3-6--|
F#|-0-0-0-3-0-3-0-0--0-0-0-3-0-3-0--0-0-0-3-0-3-0-0--0-0-0-3-0-3-6--|
B |-0-0-0-3-0-3-0-0--0-0-0-3-0-3-0--0-0-0-3-0-3-0-0--0-0-0-3-0-3-6--|

C#|---------------------------------------------------------------|
G#|---------------------------------------------------------------|
E |---------------------------------------------------------------|
B |-0-0-0-3-0-3-0-0--0-0-0-3-0-3-0--0-0-0-3-0-3-0--0-0--0-0-0-3-0-|
F#|-0-0-0-3-0-3-0-0--0-0-0-3-0-3-0--0-0-0-3-0-3-0--0-0--0-0-0-3-0-|
B |-0-0-0-3-0-3-0-0--0-0-0-3-0-3-0--0-0-0-3-0-3-0--0-0--0-0-0-3-0-|

Chorus 2
C#|------------------------------------------------------------------------------------------------|
G#|------------------------------------------------------------------------------------------------|
E |------------------------------------------------------------------------------------------------|
B |-6-6-5-3-0-x-x-0-x-0-3-5-6-6-5-3-0-x-x-0-x-0-3-5-6-6-5-3-0-x-x-0-x-0-3-5-5-5-5-5-10-10-10-------|
F#|-6-6-5-3-0-x-x-0-x-0-3-5-6-6-5-3-0-x-x-0-x-0-3-5-6-6-5-3-0-x-x-0-x-0-3-5-5-5-5-5-10-10-10-------|
B |-6-6-5-3-0-x-x-0-x-0-3-5-6-6-5-3-0-x-x-0-x-0-3-5-6-6-5-3-0-x-x-0-x-0-3-5-5-5-5-5-10-10-10-0-3-5-|

C#|------------------------------------------------------------------------------------------------|
G#|------------------------------------------------------------------------------------------------|
E |------------------------------------------------------------------------------------------------|
B |-6-6-5-3-0-x-x-0-x-0-3-5-6-6-5-3-12-x-x-0-x-0-3-5-6-6-5-3-0-x-x-0-x-0-3-5-5-5-5-5-10-10-10-------|
F#|-6-6-5-3-0-x-x-0-x-0-3-5-6-6-5-3-12-x-x-0-x-0-3-5-6-6-5-3-0-x-x-0-x-0-3-5-5-5-5-5-10-10-10-------|
B |-6-6-5-3-0-x-x-0-x-0-3-5-6-6-5-3-12-x-x-0-x-0-3-5-6-6-5-3-0-x-x-0-x-0-3-5-5-5-5-5-10-10-10-0-3-5-|

C#|--------------------------------------------------------------------------|
G#|--------------------------------------------------------------------------|
E |--------------------------------------------------------------------------|
B |-6-5-3-12\-0-3-5--6-5-3-0-3-5-----------6-5-3-12\-0-3-5--3--5--0--3--5--0-|
F#|-6-5-3-12\-0-3-5--6-5-3-0-3-5--3-3-3-3--6-5-3-12\-0-3-5--3--5--0--3--5--0-|
B |-6-5-3-12\-0-3-5--6-5-3-0-3-5-----------6-5-3-12\-0-3-5--3--5--0--3--5--0-|


Guitar 2:

Nothing For Verse 1 or 2 or Chorus

Verse 3: 
C#|-17-16--17-16-13-10/20--17-16-14-|
G#|---------------------------------|
E |---------------------------------|
B |---------------------------------|
F#|---------------------------------|
B |---------------------------------|
Добавлено: 19.01.2018
Другие материалы по этой песне:
  • Аккорды и текст

Страница создана 19.01.2018
http://primanota.ru/thousand-foot-krutch/river-chords.htm
Привет, Гость.
Предлагаем пройти революционный курс по гитаре.
Подарок от PrimaNota.Ru, забирай!