PrimaNota.ru - самый крупный в мире бесплатный архив песенных текстов, аккордов, табулатур и нот


Thousand Foot Krutch - Push - таба, видео

Регистрация Запомнить меня
Войти через:  Facebook Google Twitter Vk Yandex Mail.ru

Thousand Foot Krutch - Push - таба, видео

Печатать
Просмотров: 119
Новый альбом группы 'Черный Кузнец' по культовому сериалу 'Сверхъестественное'!
Push by TFK
Tuning Drop C (CGCFAD)
Album Exhale
Tabbed by Adrenaline16

[Intro]
(Lead guitars play this)
D|----1----------------------------------------------------------------------|
A|------3--------------------------------------------------------------------|
F|0-0-----3-2---3-2----------------------------------------------------------| x2
C|------------0-----3-5------------------------------------------------------|
G|---------------------------------------------------------------------------|
C|---------------------------------------------------------------------------|

(Rhythm plays this once after the first time that lead plays)
D|----------------------------------------|------------------------------------------------------|
A|----------------------------------------|------------------------------------------------------|
F|----------------------------------------|------------------------------------------------------|
C|5-5-5-5-5-8-8-8-8-8-0-0-0-0-0-3-3-3-xxx-|5-5-5-5-5-8-8-8-8-8-8-8-8-3-3-3-3-3-0-0-0-0-0---------|
G|5-5-5-5-5-8-8-8-8-8-0-0-0-0-0-3-3-3-xxx-|5-5-5-5-5-8-8-8-8-8-8-8-8-3-3-3-3-3-0-0-0-0-0---------|
C|5-5-5-5-5-8-8-8-8-8-0-0-0-0-0-3-3-3-xxx-|5-5-5-5-5-8-8-8-8-8-8-8-8-3-3-3-3-3-0-0-0-0-0---------|
                                    This is played after the First Part


************************************

| x  Dead note 

************************************
Добавлено: 19.01.2018
Другие материалы по этой песне:
  • Аккорды и текст

Страница создана 19.01.2018
http://primanota.ru/thousand-foot-krutch/push-chords.htm
Привет, Гость.
Предлагаем пройти революционный курс по гитаре.
Подарок от PrimaNota.Ru, забирай!