PrimaNota.ru - самый крупный в мире бесплатный архив песенных текстов, аккордов, табулатур и нот


Third Day - You Make Me Mad - аккорды и текст, таба, бас-таба, видео

Регистрация Запомнить меня
Войти через:  Facebook Google Twitter Vk Yandex Mail.ru

Third Day - You Make Me Mad - аккорды и текст, таба, бас-таба, видео

Печатать
Просмотров: 224
Авторы музыки: Third Day
Авторы текста: Mac Powell
You Make Me Mad
Third Day
		   e: Wed, 4 Mar 1998 17:18:19 EST


Author/Artist: Third Day
Title: You Make Me Mad
Album: Conspiracy #5
Transcribed by: Mark
Email: calvin@bright.net


This is a correction from the last time I tabbed this
song.  I didn't relize it till I sent it in.  The song is in
drop D tunning.  DADGBE


-------------------------------
--------3/5\3------------------
-------------------------------
-------------------------------
-------------------------------
--0--0-------------------------
Play 24X through first verse                                                



Verse:


I don't know if it's necessarily  (the things you do)                       
Maybe the things you say or maybe just the way you say                      
It's true you sing a pretty song indeed  (in a new way)                     
You've said some things to me but I'm not sure if you really mean it.       



------------------------------------------------------------------------------
------------------------------------------------------------------------------
------------------------------------------------------------------------------
-5----5-----5-----5------5-----5----8----8-----8------8-----7-8-7-8-7-8-7-8---
-5----5-----5-----5------5-----5----8----8-----8------8-----7-8-7-8-7-8-7-8---
-5----5-----5-----5------5-----5----8----8-----8------8-----7-8-7-8-7-8-7-8---
C you realize what you have done.  C you think we have a problem.         


------------------------------------------------------------------------------
------------------------------------------------------------------------------
--7----7----------------------------------------------------------------------
--7----7------3----3------------5-----5--------5------------------------------
--5----5------3----3------------5-----5--------5------------------------------
--------------3----3------------5-----5--------5------------------------------
You make me dance, you make me cry, you make me laugh.                      


------------------------------------------------------------------------------
------------------------------------------------------------------------------
--7----7----------------------------------------------------------------------
--7----7------3----3------------5-----5--------5------------------------------
--5----5------3----3------------5-----5--------5------------------------------
--------------3----3------------5-----5--------5------------------------------
You make me shout, you make me smile, you make me mad.                      


------------------------------------------------------------------------------
------------------------------------------------------------------------------
--7----7----------------------------------------------------------------------
--7----7------3----3------------5-----5--------5------------------------------
--5----5------3----3------------5-----5--------5------------------------------
--------------3----3------------5-----5--------5------------------------------
You make me sing, you make me think, you make me sad.                       


------------------------------------------------------------------------------
------------------------------------------------------------------------------
--7----7----------------------------------------------------------------------
--7----7------3----3------------5-----5--------5------------------------------
--5----5------3----3------------5-----5--------5------------------------------
--------------3----3------------5-----5--------5------------------------------
You make me fall, you make me love, you make me mad.                        


------------------------------------------------------------------------------
--------3/5\3-----------------------------------------------------------------
------------------------------------------------------------------------------
------------------------------------------------------------------------------
------------------------------------------------------------------------------
--0--0------------------------------------------------------------------------
Play 16X through 2nd verse                                                  




2nd Verse:


I don't see calling it a tragity  (what you have done)                      
To do so would be wrong and I think taking things too far                   
But in reality  (the truth be known)                                        
I don't listen to words but I know all of them by heart.                    




------------------------------------------------------------------------------
------------------------------------------------------------------------------
------------------------------------------------------------------------------
--5-----5-------5--------5----------8-------8---------------7-8-7-8-7-8-7-8---
--5-----5-------5--------5----------8-------8---------------7-8-7-8-7-8-7-8---
--5-----5-------5--------5----------8-------8---------------7-8-7-8-7-8-7-8---
C you realize what you have done.  C you think this is a problem.         


------------------------------------------------------------------------------
------------------------------------------------------------------------------
------------------------------------------------------------------------------
------------------------------------------------------------------------------
------------------------------------------------------------------------------
------------------------------------------------------------------------------
(Chorus)                                                                    


------------------------------------------------------------------------------
------------------------------------------------------------------------------
--7----7----------------------------------------------------------------------
--7----7-------3-----3------------5-----5-------5-----------------------------
--5----5-------3-----3------------5-----5-------5-----------------------------
---------------3-----3------------5-----5-------5-----------------------------
Play 4X                                                                     


------------------------------------------------------------------------------
------------------------------------------------------------------------------
------------------------------------------------------------------------------
------------------------------------------------------------------------------
------------------------------------------------------------------------------
------------------------------------------------------------------------------
(Chorus X2)                                                                 


------------------------------------------------------------------------------
--------3/5\3-----------------------------------------------------------------
------------------------------------------------------------------------------
------------------------------------------------------------------------------
------------------------------------------------------------------------------
--0--0------------------------------------------------------------------------
                                                                             



I hope this helps!     
Добавлено: 09.08.2013
Другие материалы по этой песне:

Страница создана 08.03.2012
http://primanota.ru/third-day/you-make-me-mad-chords.htm
Привет, Гость.
Предлагаем пройти революционный курс по гитаре.
Подарок от PrimaNota.Ru, забирай!