PrimaNota.ru - самый крупный в мире бесплатный архив песенных текстов, аккордов, табулатур и нот


Third Day - Falling To Pieces - таба, видео

Регистрация Запомнить меня
Войти через:  Facebook Google Twitter Vk Yandex Mail.ru

Third Day - Falling To Pieces - таба, видео

Печатать
Просмотров: 73
THIRD DAY
FALLING TO PIECES

intro
e--77-77-77-7-7-7-7-7-7-7--|
b--77-77-77-7-7-7-7-7-7-7--|
g--88-88-88-8-8-8-8-8-8-8--|
d--99-99-99-9-9-9-9-9-9-9--|
a--99-99-99-9-9-9-9-9-9-9--|
e--77-77-77-7-7-7-7-7-7-7--|

intro 2-chorus
e-----------------------------------------------|
b-----------------------------------------------|
g-----------------------------------------------|
d--------99-7777-5555-44-------99-7777-5555-44--|
a--------99-7777-5555-44-------99-7777-5555-44--|
e--32357-77-5555-3333-22-32357-77-5555-3333-22--|

verse
e--------------------------------------------------------------|
b--------------------------------------------------------------|
g--------------------------------------------------------------|
d--9999999997755555555555555779999999999999977555555544444444--|
a--9999999997755555555555555779999999999999977555555544444444--|
e--7777777775533333333333333557777777777777755333333322222222--|

pre-chorus
e---------------------------|
b---------------------------|
g---------------------------|
d--45555-xxx55-xx77-xxx7-9--| x2
a--45555-xxx55-xx77-xxx7-9--|
e--23333-xxx33-xx55-xxx5-7--|

chorus
e--------------------------------------------------------------|
b--------------------------------------------------------------|
g--------------------------------------------------------------|
d--------99-7777-5555-44-------99-7777-5555-44-------99-11-12--|
a--------99-7777-5555-44-------99-7777-5555-44-------99-11-12--|
e--32357-77-5555-3333-22-32357-77-5555-3333-22-32357-77-9--10--|

after chorus
e---------------------|
b---------------------|
g---------------------|
d--10-------3---------|
a--10-------3---------|
d--8--------1---------|


verse 2
e--------------------------------------------------------------|
b--------------------------------------------------------------|
g--------------------------------------------------------------|
d--9999999997755555555555555779999999999999977555555544444444--|
a--9999999997755555555555555779999999999999977555555544444444--|
e--7777777775533333333333333557777777777777755333333322222222--|

pre-chorus
e---------------------------|
b---------------------------|
g---------------------------|
d--45555-xxx55-xx77-xxx7-9--| x2
a--45555-xxx55-xx77-xxx7-9--|
e--23333-xxx33-xx55-xxx5-7--|

chorus
e--------------------------------------------------------------|
b--------------------------------------------------------------|
g--------------------------------------------------------------|
d--------99-7777-5555-44-------99-7777-5555-44-------99-11-12--|
a--------99-7777-5555-44-------99-7777-5555-44-------99-11-12--|
e--32357-77-5555-3333-22-32357-77-5555-3333-22-32357-77-9--10--|

after chorus
e---------------------|
b---------------------|
g---------------------|
d--10-------3---------| x2
a--10-------3---------|
d--8--------1---------|

e------------------------------------|
b------------------------------------|
g------------------------------------|
d--999999999775555555555555544444444-|
a--999999999775555555555555544444444-|
e--777777777553333333333333322222222-|

solo guitar 1
e-----------------------------------------------------------------|
b-----------------------------------------------------------------|
g-----------------------------------------------------------------|
d--55555555557777777799-55555555557777777799-55555555557777777799-|
a--55555555557777777799-55555555557777777799-55555555557777777799-|
d--33333333335555555577-33333333335555555577-33333333335555555577-|

e---------------------|
b---------------------|
g---------------------|
d--44444444-44444444--|
a--44444444-44444444--|
d--22222222-22222222--|

solo guitar 2
e-----------------------------------------------12-10-12---------------------|
b-------------------------7-10-10-7-10-12----------------10-12-10------------|
g--55-7-9-7-9-11-14-9---------------------------------------------12-11-9----|
d-------------------------------------------------------------------------12-|
a----------------------------------------------------------------------------|
d----------------------------------------------------------------------------|

e---------------------------------------------|
b---------------------------------------------|
g--10-11-10-11-14-16-14-101110111011----------|
d------------------------------------12-11-9--|
a---------------------------------------------|
d---------------------------------------------|

(chorus)

outro
e---------------------------------------|
b---------------------------------------|
g---------------------------------------|
d--10101010-33333333-1010101010-3-------|
a--10101010-33333333-1010101010-3-------|
d--8888888--11111111-88888888---1-------|
Добавлено: 26.08.2013
Другие материалы по этой песне:
  • Аккорды и текст

Страница создана 26.08.2013
http://primanota.ru/third-day/falling-to-pieces-chords.htm
Привет, Гость.
Предлагаем пройти революционный курс по гитаре.
Подарок от PrimaNota.Ru, забирай!