PrimaNota.ru - самый крупный в мире бесплатный архив песенных текстов, аккордов, табулатур и нот


Thin Lizzy - Sugar Blues - текст песни, таба, видео

Регистрация Запомнить меня
Войти через:  Facebook Google Twitter Vk Yandex Mail.ru

Thin Lizzy - Sugar Blues - текст песни, таба, видео

Печатать
Просмотров: 264
Уроки эстрадного вокала в Санкт-Петербурге
Artist: Thin Lizzy
Song: Sugar Blues
Tabed For Tune: E
Tabed By Janne Tschokkinen
E-Mail: janne.tschokkinen@kolumbus.fi
Site: http://www.kolumbus.fi/janne.tschokkinen

!!!These tabs were created without any kinds of money making 
purposes and are to be used only for educational purposes!!!

!!!C not re-publish this tab without permission!!!
Best viewed with 1024X768, but works also with 800X600
--------------------------------------------------------------

---->
Here are the figs, try to figure the song structure by yourself.

---> Fig.1
|-------------------------------|
|-------------------------------|
|-------------------------------|
|-4-4--2--4--2--4--2--4--2--4---|
|-2-2--0--2--0--2--0--2--0--2---|
|-------------------------------|

---> Fig.2
|-------------------------------|-------------------------|
|-------------------------------|-------------------------|
|-------------------------------|-------------------------|
|-4--4--4--4--4-4-2----------2--|-4--4--4--4--4-4---------|
|-2--2--2--2--2-2-0----4--4--0--|-2--2--2--2--2-2---------|
|----------------------2--2-----|-------------------------|

---> Chorus:
|-------------------------------|
|-------------------------------|
|-------------------------------|
|-2-----------------------------|
|-0--------------4--------------|
|----------------2--------------|

---> Solo 1 BG
|-------------------------------|
|-------------------------------|
|-------------------------------|
|-2----4----2-------------------|
|-0----2----0----4-----2--------|
|----------------2-----0--------|

---> Solo 2 BG
|------------------------------------------------|
|------------------------------------------------|
|------------------------------------------------|
|-4---------7-------9----------------------------|
|-2---------5-------7----7-5---5-----7-5---5-----|
|----------------------------7---7-5-----7---7-5-|
     
Добавлено: 23.10.2013
Другие материалы по этой песне:
  • Аккорды и текст

Страница создана 23.05.2012
http://primanota.ru/thin-lizzy/sugar-blues-chords.htm
Привет, Гость.
Предлагаем пройти революционный курс по гитаре.
Подарок от PrimaNota.Ru, забирай!