PrimaNota.ru - самый крупный в мире бесплатный архив песенных текстов, аккордов, табулатур и нот


Thin Lizzy - Song For Jimi - таба, видео

Регистрация Запомнить меня
Войти через:  Facebook Google Twitter Vk Yandex Mail.ru

Thin Lizzy - Song For Jimi - таба, видео

Печатать
Просмотров: 57
Artist: Thin Lizzy
Song: Song For Jimi
Tabed For Tune: E
Tabed By Janne Tschokkinen
E-Mail: janne.tschokkinen@kolumbus.fi
Site: http://www.kolumbus.fi/janne.tschokkinen

!!!These tabs were created without any kinds of money making 
purposes and are to be used only for educational purposes!!!

!!!C not re-publish this tab without permission!!!
Best viewed with 1024X768, but works also with 800X600
--------------------------------------------------------------


|-------------------------------------------------------|
|-------------------------------------------------------|
|-------------------------------------------------------|
|-7--5------------------------------------7--5----5--7--|
|-5--3----7--5----7--5----5--3----5--3----5--3----3--5--|
|---------5--3----5--3----3--1----3--1------------------|


Bridge
|-------|------|-------------|
|-------|------|-------------|
|-------|------|-------------|
|-7-----|-7----|-------------|
|-5-----|-5----|-------------|
|-------|------|-2--3--4--5--|
     
Добавлено: 26.10.2013
Другие материалы по этой песне:
  • Аккорды и текст

Страница создана 26.10.2013
http://primanota.ru/thin-lizzy/song-for-jimi-chords.htm
Привет, Гость.
Предлагаем пройти революционный курс по гитаре.
Подарок от PrimaNota.Ru, забирай!