PrimaNota.ru - самый крупный в мире бесплатный архив песенных текстов, аккордов, табулатур и нот


Thin Lizzy - Dont Believe A Word Live - бас-таба, видео

Регистрация Запомнить меня
Войти через:  Facebook Google Twitter Vk Yandex Mail.ru

Thin Lizzy - Dont Believe A Word Live - бас-таба, видео

Печатать
Просмотров: 70
Don't Believe a Word(Live)
Original single release by Thin Lizzy from there album Johnny The Fox.
Reached number 12 UK in 1977. Bass performance Phil Lynott.
Tab by bass50611. Welcome to my tab of this live version from their album
Live And Dangerous and third in the medley after Cowboy Song and The Boys
Are Back In Town. All same key. Comments at bass254@btinternet.com

PLEASE NOTE THE TUNING

Intro:
Gb|-------------------------------------------------------------------------|
Db|-------------------------------------------------------------------------|
Ab|-------------------------------------------------------------------------|
Eb|-5--5-5--5--5-5---4-5--5-5--5--5-5---4-5--5-5--5--5-5---4-5--5-5--5--5-5-|

                                                           (Pause Drum Roll)
Gb|--------------------------------------------------------------|
Db|--------------------------------------------------------------|
Ab|--------------------------------------------------------------|
Eb|-4-5--5-5--5--5-5---4-5--5-5--5--5-5---4-5--5-5--5--5-5---4-5-|

Verse:                                       .                  .
Gb|---------------------------------------------------------------|
Db|---------------------------------------------------------------|
Ab|-----------------------------5--5-5--5--5----------------------|
Eb|-5--5-5--5--5---5--5-5--5--5--------------3----5--5---3--3---1-|

                .
Gb|------------------------------------------------------------|
Db|------------------------------------------------------------|
Ab|-5--5---3--3------------------------------------5--5-5--2---|
Eb|-------------3------5--5-5--5--5---5--5-5--5--5-----5-----3-|

                  .              .
Gb|--------------------------------|
Db|--------------------------------|
Ab|------------------5--5---3--3---|
Eb|-5--5---3--3---1--------------3-|

Bridge:
Gb|--------------------------------------------------------------------------|
Db|--------------------------------------------------------------------------|
Ab|-7--7-7--7--7---7--7-7--7--7---5--5-5--5--5---5--5-5--5--5---5--5-5--5--5-|
Eb|--------------------------------------------------------------------------|

                                  (Pause)
Gb|------------------------------------|
Db|---------5--------------------------|
Ab|-5--7--8---7--5---------------------|
Eb|~---------------5--5-5--5--5---5----|

Solo: (Repeat Verse)

Repeat Bridge:

Verse 2:                                                    .
Gb|-----------------------------------------------------------|
Db|-----------------------------------------------------------|
Ab|-----------------------------5--5-5--2---------------------|
Eb|-5--5-5--5--5---5--5-5--5--5-----5-----3---5--5---3--3---1-|
                .
Gb|---------------|
Db|---------------|
Ab|-5--5---3--3---|
Eb|-------------3-|

Outro:            .                 .                 .                 .
Gb|-----------------------------------------------------------------------|
Db|-----------------------------------------------------------------------|
Ab|-----------------------------------------------------------------------|
Eb|-5--5---3--3---1---5--5---3--3---1---5--5---3--3---1---5--5---3--3---1-|

Gb|-------------------------------------------------------------------------|
Db|-------------------------------------------------------------------------|
Ab|-------------------------------------------------------------------------|
Eb|-5--5-5--5--5-5---4-5--5-5--5--5-5---4-5--5-5--5--5-5---4-5--5-5--5--5-5-|

Gb|--------------------------------------------------------------|
Db|--------------------------------------------------------------|
Ab|--------------------------------------------------------------|
Eb|-4-5--5-5--5--5-5---4-5--5-5--5--5-5---4-5--5-5--5--5-5---4-5-|

Gb|---------|
Db|-7-5-----|
Ab|-----7---|
Eb|-------5-|
Добавлено: 20.04.2016
Другие материалы по этой песне:
  • Аккорды и текст

Страница создана 20.04.2016
http://primanota.ru/thin-lizzy/dont-believe-a-word-live-chords.htm
Привет, Гость.
Предлагаем пройти революционный курс по гитаре.
Подарок от PrimaNota.Ru, забирай!