PrimaNota.ru - самый крупный в мире бесплатный архив песенных текстов, аккордов, табулатур и нот


Theory Of A Deadman - Villain - текст песни, таба, видео

Регистрация Запомнить меня
Войти через:  Facebook Google Twitter Vk Yandex Mail.ru

Theory Of A Deadman - Villain - текст песни, таба, видео

Печатать
Просмотров: 406
Уроки эстрадного вокала в Санкт-Петербурге
Villain
Theory of A Deadman
The Truth Is... (2011)

Words & Music by Tyler Connolly, Dean Back, and Dave Brenner

GTR I - Drop C Tuning "Tyler Connolly" (d,A,F,C,G,C)
GTR II - Drop C Tuning "Dave Brenner" (d,A,F,C,G,C)

Intro

  GTR I
d|-------------------------------------|-------------------------------------|
A|-------------------------------------|-------------------------------------|
F|-------------------------------------|-------------------------------------|
C|-------------------------------------|-------------------------------------|
G|-------------------------------------|-------------------------------------|
C|--3br3-----0--------3br3-----0-------|--3br3-----0--------0--------0-------|
 |
 |GTR II
d|-------------------------------------|-------------------------------------|
A|-------------------------------------|-------------------------------------|
F|-------------------------------------|-------------------------------------|
C|--3br3-----0--------3br3-----0-------|--3br3-----0--------0--------0-------|
G|-------------------------------------|-------------------------------------|
C|-------------------------------------|-------------------------------------|

  GTR I
d|-------------------------------------|-------------------------------------|
A|-------------------------------------|-------------------------------------|
F|-------------------------------------|-------------------------------------|
C|-------------------------------------|--x--x--x--x--x--x--x--x--x--x--x--x-|
G|-------------------------------------|--x--x--x--x--x--x--x--x--x--x--x--x-|
C|--3br3-----0--------3br3-----0-------|--x--x--x--x--x--x--x--x--x--x--x--x-|
 |
 |GTR II
d|-------------------------------------|-------------------------------------|
A|-------------------------------------|-------------------------------------|
F|-------------------------------------|-------------------------------------|
C|--3br3-----0--------3br3-----0-------|--x--x--x--x--x--x--x--x--x--x--x--x-|
G|-------------------------------------|--x--x--x--x--x--x--x--x--x--x--x--x-|
C|-------------------------------------|--x--x--x--x--x--x--x--x--x--x--x--x-|

Main Riff

  GTR I
d|-10-------10-----9--8--------8-----8-|-------------------------------------|
A|-10-------10-----9--8--------8-----8-|-------------------------------------|
F|-------------------------------------|-------------------------------------|
C|-------------------------------------|--5--------5-----4--3--------3-----3-|
G|-------------------------------------|--5--------5-----4--3--------3-----3-|
C|-------------------------------------|--5--------5-----4--3--------3-----3-|
 |
 |GTR II
d|-------------------------------------|-------------------------------------|
A|-------------------------------------|-------------------------------------|
F|--7--------7-----6--5--------5-----5-|-------------------------------------|
C|--7--------7-----6--5--------5-----5-|--5--------5-----4--3--------3-----3-|
G|--5--------5-----4--3--------3-----3-|--5--------5-----4--3--------3-----3-|
C|-------------------------------------|--5--------5-----4--3--------3-----3-|

  GTR I
d|-10-------10-----9--8--------8-----8-|-------------------------------------|
A|-10-------10-----9--8--------8-----8-|-------------------------------------|
F|-------------------------------------|-------------------------------------|
C|-------------------------------------|--5--------5-----4--3--------3-----3-|
G|-------------------------------------|--5--------5-----4--3--------3-----3-|
C|-------------------------------------|--5--------5-----4--3--------3-----3-|
 |
 |GTR II
d|-------------------------------------|-------------------------------------|
A|-------------------------------------|-------------------------------------|
F|--7--------7-----6--5--------5-----5-|-------------------------------------|
C|--7--------7-----6--5--------5-----5-|--5--------5-----4--3--------3-----3-|
G|--5--------5-----4--3--------3-----3-|--5--------5-----4--3--------3-----3-|
C|-------------------------------------|--5--------5-----4--3--------3-----3-|

  GTR I
d|-------------------------------------|-------------------------------------|
A|-------------------------------------|-------------------------------------|
F|--7--------7-----9-10-------10----12-|-14-------14----12-10-------10----10-|
C|--x--------x-----x--x--------x-----x-|--x--------x-----x--x--------x-----x-|
G|--5--------5-----7--8--------8----10-|-12-------12----10--8--------8-----8-|
C|-------------------------------------|-------------------------------------|
 |
 |GTR II
d|-------------------------------------|-------------------------------------|
A|-------------------------------------|-------------------------------------|
F|--7--------7-----6--5--------5-----5-|-------------------------------------|
C|--7--------7-----6--5--------5-----5-|--5--------5-----4--3--------3-----3-|
G|--5--------5-----4--3--------3-----3-|--5--------5-----4--3--------3-----3-|
C|-------------------------------------|--5--------5-----4--3--------3-----3-|

  GTR I
d|-------------------------------------|-------------------------------------|
A|-------------------------------------|-------------------------------------|
F|-12-------12-------12----12-12----12-|-10-------10-------10----10-10-------|
C|--x--------x--------x-----x--x-----x-|--x--------x--------x-----x--x-------|
G|-10-------10-------10----10-10----10-|--8--------8--------8-----8--8-------|
C|-------------------------------------|-------------------------------------|
 |
 |GTR II
d|-------------------------------------|-------------------------------------|
A|-------------------------------------|-------------------------------------|
F|-------------------------------------|-------------------------------------|
C|--5--------5--------5-----5--5-----5-|--3--------3--------3--------3-------|
G|--5--------5--------5-----5--5-----5-|--3--------3--------3--------3-------|
C|--5--------5--------5-----5--5-----5-|--3--------3--------3--------3-------|

Verse

  GTR I,II
d|-------------------|-------------------|-------------------|-------------------|
A|-------------------|-------------------|-------------------|-------------------|
F|-------------------|-------------------|-------------------|-------------------|
C|-------------------|-------------------|-------------------|-------------------|
G|-------------------|-------------------|-------------------|-------------------|
C|-------------------|-------------------|-------------------|-------------------|

Verse 2

  GTR II
d|-------------------------------------|-------------------------------------|
A|-------------------------------------|-------------------------------------|
F|-------------------------------------|-------------------------------------|
C|--3br3-----0--------3br3-----0-------|--3br3-----0--------0--------0-------|
G|-------------------------------------|-------------------------------------|
C|-------------------------------------|-------------------------------------|

  GTR II
d|-------------------------------------|-------------------------------------|
A|-------------------------------------|-------------------------------------|
F|-------------------------------------|-------------------------------------|
C|--3br3-----0--------3br3-----0-------|--3br3-----0--------0--------0-------|
G|-------------------------------------|-------------------------------------|
C|-------------------------------------|-------------------------------------|

  GTR II
d|-------------------------------------|-------------------------------------|
A|-------------------------------------|-------------------------------------|
F|-------------------------------------|-------------------------------------|
C|--3br3-----0--------3br3-----0-------|--3br3-----0--------0--------0-------|
G|-------------------------------------|-------------------------------------|
C|-------------------------------------|-------------------------------------|

  GTR II
d|-------------------------------------|-------------------------------------|
A|-------------------------------------|-------------------------------------|
F|-------------------------------------|-------------------------------------|
C|--3--------3--------3-----3--3-----3-|--5--------5--------5-----5--5-----5-|
G|--3--------3--------3-----3--3-----3-|--5--------5--------5-----5--5-----5-|
C|--3--------3--------3-----3--3-----3-|--5--------5--------5-----5--5-----5-|

Chorus

  GTR I
d|-10-------10-----9--8--------8-----8-|-------------------------------------|
A|-10-------10-----9--8--------8-----8-|-------------------------------------|
F|-------------------------------------|-------------------------------------|
C|-------------------------------------|--5--------5-----4--3--------3-----3-|
G|-------------------------------------|--5--------5-----4--3--------3-----3-|
C|-------------------------------------|--5--------5-----4--3--------3-----3-|
 |
 |GTR II
d|-------------------------------------|-------------------------------------|
A|-------------------------------------|-------------------------------------|
F|--7--------7-----6--5--------5-----5-|-------------------------------------|
C|--7--------7-----6--5--------5-----5-|--5--------5-----4--3--------3-----3-|
G|--5--------5-----4--3--------3-----3-|--5--------5-----4--3--------3-----3-|
C|-------------------------------------|--5--------5-----4--3--------3-----3-|

  GTR I
d|-10-------10-----9--8--------8-----8-|-------------------------------------|
A|-10-------10-----9--8--------8-----8-|-------------------------------------|
F|-------------------------------------|-------------------------------------|
C|-------------------------------------|--5--------5-----4--3--------3-----3-|
G|-------------------------------------|--5--------5-----4--3--------3-----3-|
C|-------------------------------------|--5--------5-----4--3--------3-----3-|
 |
 |GTR II
d|-------------------------------------|-------------------------------------|
A|-------------------------------------|-------------------------------------|
F|--7--------7-----6--5--------5-----5-|-------------------------------------|
C|--7--------7-----6--5--------5-----5-|--5--------5-----4--3--------3-----3-|
G|--5--------5-----4--3--------3-----3-|--5--------5-----4--3--------3-----3-|
C|-------------------------------------|--5--------5-----4--3--------3-----3-|

  GTR I
d|-10-------10-----9--8--------8-----8-|-------------------------------------|
A|-10-------10-----9--8--------8-----8-|-------------------------------------|
F|-------------------------------------|-------------------------------------|
C|-------------------------------------|--5--------5-----4--3--------3-----3-|
G|-------------------------------------|--5--------5-----4--3--------3-----3-|
C|-------------------------------------|--5--------5-----4--3--------3-----3-|
 |
 |GTR II
d|-------------------------------------|-------------------------------------|
A|-------------------------------------|-------------------------------------|
F|--7--------7-----6--5--------5-----5-|-------------------------------------|
C|--7--------7-----6--5--------5-----5-|--5--------5-----4--3--------3-----3-|
G|--5--------5-----4--3--------3-----3-|--5--------5-----4--3--------3-----3-|
C|-------------------------------------|--5--------5-----4--3--------3-----3-|

  GTR I,II
d|-------------------------------------|-------------------------------------|
A|-------------------------------------|-------------------------------------|
F|-------------------------------------|-------------------------------------|
C|--5--------5--------5-----5--5-----5-|--3--------3--------3-----3--3-----3-|
G|--5--------5--------5-----5--5-----5-|--3--------3--------3-----3--3-----3-|
C|--5--------5--------5-----5--5-----5-|--3--------3--------3-----3--3-----3-|

Post Chorus

  GTR I,II
d|-------------------|-------------------|
A|-------------------|-------------------|
F|-------------------|-------------------|
C|-------------------|-------------------|
G|-------------------|-------------------|
C|-------------------|-------------------|

Verse 2
Chorus

Post Chorus 2

  GTR I,II
d|-------------------------------------|-------------------------------------|
A|-------------------------------------|-------------------------------------|
F|-------------------------------------|-------------------------------------|
C|--5--------5--------5-----5--5-----5-|--5-----5--5--------5-----5--5-----5-|
G|--5--------5--------5-----5--5-----5-|--5-----5--5--------5-----5--5-----5-|
C|--5--------5--------5-----5--5-----5-|--5-----5--5--------5-----5--5-----5-|

  GTR I,II
d|-------------------------------------|-------------------------------------|
A|-------------------------------------|-------------------------------------|
F|-------------------------------------|-------------------------------------|
C|--8--------8--------8-----8--8-----8-|--8-----8--8--------8-----8--8-----8-|
G|--8--------8--------8-----8--8-----8-|--8-----8--8--------8-----8--8-----8-|
C|--8--------8--------8-----8--8-----8-|--8-----8--8--------8-----8--8-----8-|

Interlude

  GTR I
d|-------------------------------------|-------------------------------------|
A|-------------------------------------|-------------------------------------|
F|----------10----------------12-------|-------12-11----10-------10-10----10-|
C|-12-------------12-10-------------10-|-------------------------------------|
G|-------------------------------------|-------------------------------------|
C|-------------------------------------|-------------------------------------|
 |
 |GTR II
d|-------------------------------------|-------------------------------------|
A|-------------------------------------|-------------------------------------|
F|--7--------7-----6--5--------5-----5-|-------------------------------------|
C|--7--------7-----6--5--------5-----5-|--------5--4-----3--------3--3-----3-|
G|--5--------5-----4--3--------3-----3-|--------5--4-----3--------3--3-----3-|
C|-------------------------------------|--------5--4-----3--------3--3-----3-|

  GTR I
d|-------------------------------------|-------------------------------------|
A|-------------------------------------|-------------------------------------|
F|----------10----------------12-------|-------12-11----10-------10-10----10-|
C|-12-------------12-10-------------10-|-------------------------------------|
G|-------------------------------------|-------------------------------------|
C|-------------------------------------|-------------------------------------|
 |
 |GTR II
d|-------------------------------------|-------------------------------------|
A|-------------------------------------|-------------------------------------|
F|--7--------7-----6--5--------5-----5-|-------------------------------------|
C|--7--------7-----6--5--------5-----5-|--------5--4-----3--------3--3-----3-|
G|--5--------5-----4--3--------3-----3-|--------5--4-----3--------3--3-----3-|
C|-------------------------------------|--------5--4-----3--------3--3-----3-|

  GTR I
d|-------------------------------------|-------------------------------------|
A|-------------------------------------|-------------------------------------|
F|----------------------------12-------|-------12-11----10-------10-10----10-|
C|-12-------12----11-10-------------10-|-------------------------------------|
G|-------------------------------------|-------------------------------------|
C|-------------------------------------|-------------------------------------|
 |
 |GTR II
d|-------------------------------------|-------------------------------------|
A|-------------------------------------|-------------------------------------|
F|--7--------7-----6--5--------5-----5-|-------------------------------------|
C|--7--------7-----6--5--------5-----5-|--------5--4-----3--------3--3-----3-|
G|--5--------5-----4--3--------3-----3-|--------5--4-----3--------3--3-----3-|
C|-------------------------------------|--------5--4-----3--------3--3-----3-|

  GTR I
d|-------------------------------------|-------------------------------------|
A|-13p10----13p10----13p10----13p10----|-13-13-13-13-13-13-14-14-14-14-14-14-|
F|-------12-------12-------12-------12-|-------------------------------------|
C|-------------------------------------|-------------------------------------|
G|-------------------------------------|-------------------------------------|
C|-------------------------------------|-------------------------------------|
 |
 |GTR II
d|-------------------------------------|-------------------------------------|
A|-------------------------------------|-------------------------------------|
F|-------------------------------------|-------------------------------------|
C|--5--------5--------5-----5--5-----5-|--3--------3--------3-----3--3-----3-|
G|--5--------5--------5-----5--5-----5-|--3--------3--------3-----3--3-----3-|
C|--5--------5--------5-----5--5-----5-|--3--------3--------3-----3--3-----3-|

Bridge

  GTR I
d|-------------------------------------|-------------------------------------|
A|-15~----------------\----------------|-------------------------------------|
F|-------------------------------------|-------------------------------------|
C|-------------------------------------|-------------------------------------|
G|-------------------------------------|-------------------------------------|
C|-------------------------------------|-------------------------------------|
 |
 |GTR II
d|--5-----------------3----------------|-------------------------------------|
A|--5-----------------3----------------|--8-----------------6----------------|
F|--7-----------------5----------------|--7-----------------5----------------|
C|--7-----------------5----------------|--5-----------------3----------------|
G|--5-----------------3----------------|--5-----------------3----------------|
C|-------------------------------------|--5-----------------3----------------|

  GTR II
d|--5-----------------3----------------|-------------------------------------|
A|--5-----------------3----------------|--8-----------------6----------------|
F|--7-----------------5----------------|--7-----------------5----------------|
C|--7-----------------5----------------|--5-----------------3----------------|
G|--5-----------------3----------------|--5-----------------3----------------|
C|-------------------------------------|--5-----------------3----------------|

  GTR II
d|--5-----------------3----------------|-------------------------------------|
A|--5-----------------3----------------|--8-----------------6----------------|
F|--7-----------------5----------------|--7-----------------5----------------|
C|--7-----------------5----------------|--5-----------------3----------------|
G|--5-----------------3----------------|--5-----------------3----------------|
C|-------------------------------------|--5-----------------3----------------|

  GTR I,II
d|-------------------------------------|-------------------------------------|
A|-------------------------------------|-------------------------------------|
F|-------------------------------------|-------------------------------------|
C|--5--------5--------5--------5-------|--3--3--3--3--3--3--3--3--3--3--3--3-|
G|--5--------5--------5--------5-------|--3--3--3--3--3--3--3--3--3--3--3--3-|
C|--5--------5--------5--------5-------|--3--3--3--3--3--3--3--3--3--3--3--3-|

Main Riff
Interlude

Outro

  GTR I
d|-------------------------------------|-------------------------------------|
A|-15~----------------\----------------|-------------------------------------|
F|-------------------------------------|-------------------------------------|
C|-------------------------------------|-------------------------------------|
G|-------------------------------------|-------------------------------------|
C|-------------------------------------|-------------------------------------|
 |
 |GTR II
d|-------------------------------------|-------------------------------------|
A|-------------------------------------|-------------------------------------|
F|-------------------------------------|-------------------------------------|
C|-----------3-----------------5-------|-------------------------------------|
G|--5-----5--------5--3-----3--------3-|-------------------------------------|
C|-------------------------------------|--------5--4----3---------3--3-----0-|
    .     .        .  .     .        .          .  .    .         .  .     .

  GTR II
d|-------------------------------------|-------------------------------------|
A|-------------------------------------|-------------------------------------|
F|-------------------------------------|-------------------------------------|
C|-----------3-----------------5-------|-------------------------------------|
G|--5-----5--------5--3-----3--------3-|-------------------------------------|
C|-------------------------------------|--------5--4----3---------3--3-----0-|
    .     .        .  .     .        .          .  .    .         .  .     .

  GTR II
d|-------------------------------------|-------------------------------------|
A|-------------------------------------|-------------------------------------|
F|-------------------------------------|-------------------------------------|
C|-----------3-----------------5-------|-------------------------------------|
G|--5-----5--------5--3-----3--------3-|-------------------------------------|
C|-------------------------------------|--------5--4----3---------3--3-----0-|
    .     .        .  .     .        .          .  .    .         .  .     .


| b  bend
| r  release bend
|trp triplet
|PH. pinch harmonic
|fbk feedback
| .  palm-mute
| /  slide up
| \  slide down
| h  hammer-on
| p  pull-off
| ~  vibrato
|(7) harmonic
| x  Mute note
===============================================================================

Добавлено: 12.03.2012
Другие материалы по этой песне:
  • Аккорды и текст

Страница создана 12.03.2012
http://primanota.ru/theory-of-a-deadman/villain-chords.htm
Привет, Гость.
Предлагаем пройти революционный курс по гитаре.
Подарок от PrimaNota.Ru, забирай!