PrimaNota.ru - самый крупный в мире бесплатный архив песенных текстов, аккордов, табулатур и нот


Theory Of A Deadman - Hate My Life - аккорды и текст, таба, бас-таба, видео

Регистрация Запомнить меня
Войти через:  Facebook Google Twitter Vk Yandex Mail.ru

Theory Of A Deadman - Hate My Life - аккорды и текст, таба, бас-таба, видео

Печатать
Просмотров: 962
Авторы: Dave Brenner, Tyler Connolly, Christine Danielle Connolly, Dean Back

Hate My Life
Theory Of A Deadman
Theory of a Deadman: Hate my Life

I used a capo on the first fret but if you dont have one you can tune a half step up or 
in a key up, your choice... THIS IS MY FIRST TAB!!!!!

        C
So sick of the hobos
                    G
Always beggin' for change
               F
I don't like how I gotta work
                                C
And they just sit around and get paid

                  C
I hate all of the people
                     G
Who can't drive their cars
                     F
Bitch you better get out of the way
                        C
Before I, start falling apart

           C
I hate my wife
                G
she's always on my ass
                       F
She wants to buy brand new things
                        C
But I, don't have the cash

(Refrain)
                G
Well I hate my job, all my rich friends

              F                 C
I hate everyone to the bitter end
                     G                      F
Nothing turns out right, there's no end in sight
            C
I hate my life


How come I never get laid?
Nice guys always lose
How could she have another headache?
There's always some kind of excuse

I still hate my job
My boss is a dick
I don't get paid nearly enough
To put up with all of his shit


-(Refrain)-

solo

e#|------------------------------------------------------------------------|
B#|--------------6--------------------------6------------------------------|
G#|--8---6----8-----8---6---6---8----6--6-------8---6----------------------|
D#|------------------------------------------------------------------------|
A#|------------------------------------------------------------------------|
E#|------------------------------------------------------------------------|


e#|------------------------------------------------------------------------|
B#|-------------6--------------------------6------------------6------------|
G#|--8--6----8-----8---6---6---8----6--6-------8---6---6---8-----8---------|
D#|------------------------------------------------------------------------|
A#|------------------------------------------------------------------------|
E#|------------------------------------------------------------------------|

I hate that I can't tell
When a girl's underage
And how when I tell her she's a nice piece of ass
Then her daddy punches me in the face

So if you're pissed like me
Bitches here's what you've gotta do
Put your middle fingers up in the air
Go on and say 'Fuck you'

-(Refrain)-
               G
So much at stake
                  F
Can't catch a break
            C
I hate my life

                    G
No there's nothing new
                     F
And it sucks to be you
                    C
I fucking hate my life

I used a capo on the first fret but if you dont have one you can tune a half step up or 
in a key up, your choice... THIS IS MY FIRST TAB!!!!! and im only fifteen lol really!!
Добавлено: 05.09.2013
Другие материалы по этой песне:
  • Аккорды и текст

Страница создана 20.06.2013
http://primanota.ru/theory-of-a-deadman/hate-my-life-chords.htm
Привет, Гость.
Предлагаем пройти революционный курс по гитаре.
Подарок от PrimaNota.Ru, забирай!