PrimaNota.ru - самый крупный в мире бесплатный архив песенных текстов, аккордов, табулатур и нот


Theory Of A Deadman - Confession - текст песни, таба, видео

Регистрация Запомнить меня
Войти через:  Facebook Google Twitter Vk Yandex Mail.ru

Theory Of A Deadman - Confession - текст песни, таба, видео

Печатать
Просмотров: 236
Confession
Theory of A Deadman
Theory of A Deadman (2002)

Confession:  written by Tyler Connolly and Chad Kroeger

GTR I - Drop C Tuning (d,A,F,C,G,C) 
GTR II - Drop C Tuning (d,A,F,C,G,C)  

Intro

  GTR I
d|-------------------------------------------------|
A|-------------------------------------------------|
F|-------------------------------------------------|
C|--7--9--9--9--9--7--0----------------------------|
G|--7--9--9--9--9--7--0----------------------------|
C|--7--9--9--9--9--7--0----------------------------|

  GTR I
d|-------------------------------------------------|
A|-------------------------------------------------|
F|-------------------------------------------------|
C|--7--9--9--9--9--7--0-----------------------2----|
G|--7--9--9--9--9--7--0--------------------0--2----|
C|--7--9--9--9--9--7--0--------------------0--2----|
                                           .

  GTR I
d|-------------------------------------------------|
A|-------------------------------------------------|
F|-------------------------------------------------|
C|--7--9--9--9--9--7--0----------------------------|
G|--7--9--9--9--9--7--0----------------------------|
C|--7--9--9--9--9--7--0----------------------------|

  GTR I
d|-------------------------------------------------|
A|-------------------------------------------------|
F|-------------------------------------------------|
C|--7--9--9--9--9--7-----------------------0--0--0-|
G|--7--9--9--9--9--7--0--0--0--0--0--0--0--0--0--0-|
C|--7--9--9--9--9--7--0--0--0--0--0--0--0--0--0--0-|
                      .  .  .  .  .  .  . 

  GTR I
d|-------------------------------------------------|
A|-------------------------------------------------|
F|-------------------------------------------------|
C|--7--9--9--9--9--7--0--0--0--0--0--0--0--0--0--0-|
G|--7--9--9--9--9--7--0--0--0--0--0--0--0--0--0--0-|
C|--7--9--9--9--9--7--0--0--0--0--0--0--0--0--0--0-|
 |
 |GTR II
d|-----------------------0-------------------------|
A|-----3--------3--------------3--------3--------3-|
F|--------2--------2--------------2--------2-------|
C|--0--------0--------0--------------0--------0----|
G|-------------------------------------------------|
C|-------------------------------------------------|

  GTR I
d|-------------------------------------------------|
A|-------------------------------------------------|
F|-------------------------------------------------|
C|--7--9--9--9--9--7--0--0--0--0--0--0--0-----2----|
G|--7--9--9--9--9--7--0--0--0--0--0--0--0--0--2----|
C|--7--9--9--9--9--7--0--0--0--0--0--0--0--0--2----|
 |                                         .
 |GTR II
d|-----------------------0-------------------------|
A|-----3--------3--------------3--------3--------3-|
F|--------2--------2--------------2--------2-------|
C|--0--------0--------0--------------0--------0----|
G|-------------------------------------------------|
C|-------------------------------------------------|

  GTR I
d|-------------------------------------------------|
A|-------------------------------------------------|
F|-------------------------------------------------|
C|--7--9--9--9--9--7--0--0--0--0--0--0--0--0--0--0-|
G|--7--9--9--9--9--7--0--0--0--0--0--0--0--0--0--0-|
C|--7--9--9--9--9--7--0--0--0--0--0--0--0--0--0--0-|
 |
 |GTR II
d|-----------------------0-------------------------|
A|-----3--------3--------------3--------3--------3-|
F|--------2--------2--------------2--------2-------|
C|--0--------0--------0--------------0--------0----|
G|-------------------------------------------------|
C|-------------------------------------------------|

  GTR I
d|-------------------------------------------------|
A|-------------------------------------------------|
F|-------------------------------------------------|
C|--7--9--7--7--------2----------------------------|
G|--7--9--7--7--0--0--2----------------------------|
C|--7--9--7--7--0--0--2----------------------------|
 |              .  .
 |GTR II
d|-------------------------------------------------|
A|-----3--------3-----2----------------------------|
F|--------2--------2--2----------------------------|
C|--0--------0--------0----------------------------|
G|-------------------------------------------------|
C|-------------------------------------------------|

Verse

  GTR I,II
d|-------------------------------------------------|
A|-------------------------------------------------|
F|-------------------------------------------------|
C|-------------------------------------------------|
G|-------------------------------------------------|
C|-------------------------------------------------|

  GTR I,II
d|-------------------------------------------------|
A|-------------------------------------------------|
F|-------------------------------------------------|
C|-------------------------------------------------|
G|-------------------------------------------------|
C|-------------------------------------------------|

  GTR I,II
d|-------------------------------------------------|
A|-------------------------------------------------|
F|-------------------------------------------------|
C|-------------------------------------------------|
G|-------------------------------------------------|
C|-------------------------------------------------|

  GTR I,II
d|-------------------------------------------------|
A|-------------------------------------------------|
F|-----------------------2/------------------------|
C|-----------------------2/------------------------|
G|-----------------------0-------------------------|
C|-------------------------------------------------|

  GTR I
d|-------------------------------------------------|
A|-------------------------------------------------|
F|-------------------------------------------------|
C|--7--9--9--9--9--7-------------------------------|
G|--7--9--9--9--9--7--0--0--0--0--0--0--0--0--0--0-|
C|--7--9--9--9--9--7--0--0--0--0--0--0--0--0--0--0-|
 |                    .  .  .  .  .  .  .  .  .  .
 |GTR II
d|-----------------------0-------------------------|
A|-----3--------3--------------3--------3--------3-|
F|--------2--------2--------------2--------2-------|
C|--0--------0--------0--------------0--------0----|
G|-------------------------------------------------|
C|-------------------------------------------------|

  GTR I
d|-------------------------------------------------|
A|-------------------------------------------------|
F|-------------------------------------------------|
C|--7--9--9--9--9--7-------------------------------|
G|--7--9--9--9--9--7--0--0--0--0--0--0--0--0--0--0-|
C|--7--9--9--9--9--7--0--0--0--0--0--0--0--0--0--0-|
 |                    .  .  .  .  .  .  .  .  .  .
 |GTR II
d|-----------------------0-------------------------|
A|-----3--------3--------------3--------3--------3-|
F|--------2--------2--------------2--------2-------|
C|--0--------0--------0--------------0--------0----|
G|-------------------------------------------------|
C|-------------------------------------------------|

  GTR I
d|-------------------------------------------------|
A|-------------------------------------------------|
F|-------------------------------------------------|
C|--7--9--9--9--9--7-------------------------------|
G|--7--9--9--9--9--7--0--0--0--0--0--0--0--0--0--0-|
C|--7--9--9--9--9--7--0--0--0--0--0--0--0--0--0--0-|
 |                    .  .  .  .  .  .  .  .  .  .
 |GTR II
d|-----------------------0-------------------------|
A|-----3--------3--------------3--------3--------3-|
F|--------2--------2--------------2--------2-------|
C|--0--------0--------0--------------0--------0----|
G|-------------------------------------------------|
C|-------------------------------------------------|

  GTR I
d|-------------------------------------------------|
A|-------------------------------------------------|
F|-------------------------------------------------|
C|--7--9--7--7--------2----------------------------|
G|--7--9--7--7--0--0--2----------------------------|
C|--7--9--7--7--0--0--2----------------------------|
 |              .  .
 |GTR II
d|-------------------------------------------------|
A|-----3--------3-----2----------------------------|
F|--------2--------2--2----------------------------|
C|--0--------0--------0----------------------------|
G|-------------------------------------------------|
C|-------------------------------------------------|

Chorus

  GTR I,II
d|-------------------------------------------------|
A|-------------------------------------------------|
F|-------------------------------------------------|
C|--7--9--9--9--9--7--0--0--0--0--0--0--0--0--0--0-|
G|--7--9--9--9--9--7--0--0--0--0--0--0--0--0--0--0-|
C|--7--9--9--9--9--7--0--0--0--0--0--0--0--0--0--0-|

  GTR I,II
d|-------------------------------------------------|
A|-------------------------------------------------|
F|-------------------------------------------------|
C|--7--7--7--7--7--7--2--2--2--2--2--2-----0-------|
G|--7--7--7--7--7--7--2--2--2--2--2--2--0--0-------|
C|--7--7--7--7--7--7--2--2--2--2--2--2--0--0-------|
                                        .   

  GTR I,II
d|-------------------------------------------------|
A|-------------------------------------------------|
F|-------------------------------------------------|
C|--7--9--9--9--9--7--0--0--0--0--0--0--0--0--0--0-|
G|--7--9--9--9--9--7--0--0--0--0--0--0--0--0--0--0-|
C|--7--9--9--9--9--7--0--0--0--0--0--0--0--0--0--0-|

  GTR I,II
d|-------------------------------------------------|
A|-------------------------------------------------|
F|-------------------------------------------------|
C|--7--7--7--7--7--7--2--2--2--2--2--2-----0-------|
G|--7--7--7--7--7--7--2--2--2--2--2--2--0--0-------|
C|--7--7--7--7--7--7--2--2--2--2--2--2--0--0-------|
                                        .   

  GTR I
d|-------------------------------------------------|
A|-------------------------------------------------|
F|-------------------------------------------------|
C|--2-----2-----2-----2-----2-----2--------2-------|
G|--2-----2-----2-----2-----2-----2-----0--2-------|
C|--2-----2-----2-----2-----2-----2-----0--2-------|
 |                                      .
 |GTR II
d|-------------------------------------------------|
A|-------------------------------------------------|
F|----------------------------------------/9-------|
C|--2-----2-----2-----2-----2-----2----------------|
G|--2-----2-----2-----2-----2-----2-----0----------|
C|--2-----2-----2-----2-----2-----2-----0----------|
                                        .

  GTR I
d|-------------------------------------------------|
A|-------------------------------------------------|
F|-------------------------------------------------|
C|--0----------------------------------------------|
G|--0----------------------------------------------|
C|--0----------------------------------------------|
 |
 |GTR II
d|-------------------------------------------------|
A|-------------------------------------------------|
F|--7----------------------------------------------|
C|-------------------------------------------------|
G|-------------------------------------------------|
C|-------------------------------------------------|

Verse

  GTR I,II
d|-------------------------------------------------|
A|-------------------------------------------------|
F|-------------------------------------------------|
C|-------------------------------------------------|
G|-------------------------------------------------|
C|-------------------------------------------------|

  GTR I,II
d|-------------------------------------------------|
A|-------------------------------------------------|
F|-------------------------------------------------|
C|-------------------------------------------------|
G|-------------------------------------------------|
C|-------------------------------------------------|

  GTR I,II
d|-------------------------------------------------|
A|-------------------------------------------------|
F|-------------------------------------------------|
C|-------------------------------------------------|
G|-------------------------------------------------|
C|-------------------------------------------------|

  GTR I,II
d|-------------------------------------------------|
A|-------------------------------------------------|
F|-----------------------2/------------------------|
C|-----------------------2/------------------------|
G|-----------------------0-------------------------|
C|-------------------------------------------------|

  GTR I
d|-------------------------------------------------|
A|-------------------------------------------------|
F|-------------------------------------------------|
C|--7--9--9--9--9--7-------------------------------|
G|--7--9--9--9--9--7--0--0--0--0--0--0--0--0--0--0-|
C|--7--9--9--9--9--7--0--0--0--0--0--0--0--0--0--0-|
 |                    .  .  .  .  .  .  .  .  .  .
 |GTR II
d|-----------------------0-------------------------|
A|-----3--------3--------------3--------3--------3-|
F|--------2--------2--------------2--------2-------|
C|--0--------0--------0--------------0--------0----|
G|-------------------------------------------------|
C|-------------------------------------------------|

  GTR I
d|-------------------------------------------------|
A|-------------------------------------------------|
F|-------------------------------------------------|
C|--7--9--9--9--9--7-------------------------------|
G|--7--9--9--9--9--7--0--0--0--0--0--0--0--0--0--0-|
C|--7--9--9--9--9--7--0--0--0--0--0--0--0--0--0--0-|
 |                    .  .  .  .  .  .  .  .  .  .
 |GTR II
d|-----------------------0-------------------------|
A|-----3--------3--------------3--------3--------3-|
F|--------2--------2--------------2--------2-------|
C|--0--------0--------0--------------0--------0----|
G|-------------------------------------------------|
C|-------------------------------------------------|

  GTR I
d|-------------------------------------------------|
A|-------------------------------------------------|
F|-------------------------------------------------|
C|--7--9--9--9--9--7-------------------------------|
G|--7--9--9--9--9--7--0--0--0--0--0--0--0--0--0--0-|
C|--7--9--9--9--9--7--0--0--0--0--0--0--0--0--0--0-|
 |                    .  .  .  .  .  .  .  .  .  .
 |GTR II
d|-----------------------0-------------------------|
A|-----3--------3--------------3--------3--------3-|
F|--------2--------2--------------2--------2-------|
C|--0--------0--------0--------------0--------0----|
G|-------------------------------------------------|
C|-------------------------------------------------|

  GTR I
d|-------------------------------------------------|
A|-------------------------------------------------|
F|-------------------------------------------------|
C|--7--9--7--7--------2----------------------------|
G|--7--9--7--7--0--0--2----------------------------|
C|--7--9--7--7--0--0--2----------------------------|
 |              .  .
 |GTR II
d|-------------------------------------------------|
A|-----3--------3-----2----------------------------|
F|--------2--------2--2----------------------------|
C|--0--------0--------0----------------------------|
G|-------------------------------------------------|
C|-------------------------------------------------|

Chorus

  GTR I,II
d|-------------------------------------------------|
A|-------------------------------------------------|
F|-------------------------------------------------|
C|--7--9--9--9--9--7--0--0--0--0--0--0--0--0--0--0-|
G|--7--9--9--9--9--7--0--0--0--0--0--0--0--0--0--0-|
C|--7--9--9--9--9--7--0--0--0--0--0--0--0--0--0--0-|

  GTR I,II
d|-------------------------------------------------|
A|-------------------------------------------------|
F|-------------------------------------------------|
C|--7--7--7--7--7--7--2--2--2--2--2--2-----0-------|
G|--7--7--7--7--7--7--2--2--2--2--2--2--0--0-------|
C|--7--7--7--7--7--7--2--2--2--2--2--2--0--0-------|
                                        .   

  GTR I,II
d|-------------------------------------------------|
A|-------------------------------------------------|
F|-------------------------------------------------|
C|--7--9--9--9--9--7--0--0--0--0--0--0--0--0--0--0-|
G|--7--9--9--9--9--7--0--0--0--0--0--0--0--0--0--0-|
C|--7--9--9--9--9--7--0--0--0--0--0--0--0--0--0--0-|

  GTR I,II
d|-------------------------------------------------|
A|-------------------------------------------------|
F|-------------------------------------------------|
C|--7--7--7--7--7--7--2--2--2--2--2--2-----0-------|
G|--7--7--7--7--7--7--2--2--2--2--2--2--0--0-------|
C|--7--7--7--7--7--7--2--2--2--2--2--2--0--0-------|
                                        .   

  GTR I,II
d|-------------------------------------------------|
A|-------------------------------------------------|
F|-------------------------------------------------|
C|--7--9--9--9--9--7--0--0--0--0--0--0--0--0--0--0-|
G|--7--9--9--9--9--7--0--0--0--0--0--0--0--0--0--0-|
C|--7--9--9--9--9--7--0--0--0--0--0--0--0--0--0--0-|

  GTR I,II
d|-------------------------------------------------|
A|-------------------------------------------------|
F|-------------------------------------------------|
C|--7--7--7--7--7--7--2--2--2--2--2--2-----0-------|
G|--7--7--7--7--7--7--2--2--2--2--2--2--0--0-------|
C|--7--7--7--7--7--7--2--2--2--2--2--2--0--0-------|
                                        .   

  GTR I,II
d|-------------------------------------------------|
A|-------------------------------------------------|
F|-------------------------------------------------|
C|--7--9--9--9--9--7--0--0--0--0--0--0--0--0--0--0-|
G|--7--9--9--9--9--7--0--0--0--0--0--0--0--0--0--0-|
C|--7--9--9--9--9--7--0--0--0--0--0--0--0--0--0--0-|

  GTR I,II
d|-------------------------------------------------|
A|-------------------------------------------------|
F|-------------------------------------------------|
C|--7--7--7--7--7--7--2--2--2--2--2--2-----0-------|
G|--7--7--7--7--7--7--2--2--2--2--2--2--0--0-------|
C|--7--7--7--7--7--7--2--2--2--2--2--2--0--0-------|
                                        .   

  GTR I
d|-------------------------------------------------|
A|-------------------------------------------------|
F|-------------------------------------------------|
C|--2-----2-----2-----2-----2-----2--------2-------|
G|--2-----2-----2-----2-----2-----2-----0--2-------|
C|--2-----2-----2-----2-----2-----2-----0--2-------|
 |                                      .
 |GTR II
d|-------------------------------------------------|
A|-------------------------------------------------|
F|----------------------------------------/9-------|
C|--2-----2-----2-----2-----2-----2----------------|
G|--2-----2-----2-----2-----2-----2-----0----------|
C|--2-----2-----2-----2-----2-----2-----0----------|
                                        .

  GTR I
d|-------------------------------------------------|
A|-------------------------------------------------|
F|-------------------------------------------------|
C|--0----------------------------------------------|
G|--0----------------------------------------------|
C|--0----------------------------------------------|
 |
 |GTR II
d|-------------------------------------------------|
A|-------------------------------------------------|
F|--7----------------------------------------------|
C|-------------------------------------------------|
G|-------------------------------------------------|
C|-------------------------------------------------|

Bridge

  GTR I,II
d|-------------------------------------------------|
A|-------------------------------------------------|
F|-------------------------------------------------|
C|-------------------------------------------------|
G|-------------------------------------------------|
C|-------------------------------------------------|

  GTR I
d|-------------------------------------------------|
A|-------------------------------------------------|
F|-------------------------------------------------|
C|-------------------------------------------------|
G|--------------------------Pickslide--------------|
C|--------------------------Pickslide--------------|
 |
 |GTR II
d|-----------------------0-------------------------|
A|-----3--------3--------------3--------3--------3-|
F|--------2--------2--------------2--------2-------|
C|--0--------0--------0--------------0--------0----|
G|-------------------------------------------------|
C|-------------------------------------------------|

Solo

  GTR I
d|-------------------------------------------------|
A|-------------------------------------------------|
F|-/6b------------------\4~------------------------|
C|-------------------------------------------------|
G|-------------------------------------------------|
C|-------------------------------------------------|
 |
 |GTR II
d|-------------------------------------------------|
A|-------------------------------------------------|
F|-------------------------------------------------|
C|--7--9--9--9--9--7--0----------------------------|
G|--7--9--9--9--9--7--0----------------------------|
C|--7--9--9--9--9--7--0----------------------------|

  GTR I
d|-------------------------------------------------|
A|-------------------------------------------------|
F|-------------------------------------------------|
C|--4-/7--6~----7~----4~---------------------------|
G|-------------------------------------------------|
C|-------------------------------------------------|
 |  .
 |GTR II
d|-------------------------------------------------|
A|-------------------------------------------------|
F|-------------------------------------------------|
C|--7--9--9--9--9--7--0-----------------------2----|
G|--7--9--9--9--9--7--0--------------------0--2----|
C|--7--9--9--9--9--7--0--------------------0--2----|
                                           .

  GTR I
d|-------------------------------------------------|
A|-------------------------------------------------|
F|---/14-13~---14~---11~---------------------------|
C|-------------------------------------------------|
G|-------------------------------------------------|
C|-------------------------------------------------|
 |
 |GTR II
d|-------------------------------------------------|
A|-------------------------------------------------|
F|-------------------------------------------------|
C|--7--9--9--9--9--7--0----------------------------|
G|--7--9--9--9--9--7--0----------------------------|
C|--7--9--9--9--9--7--0----------------------------|

  GTR I
d|-------------------------------------------------|
A|-------------------------------------------------|
F|---/14-13~---14~---18~---------------------------|
C|-------------------------------------------------|
G|-------------------------------------------------|
C|-------------------------------------------------|
 |
 |GTR II
d|-------------------------------------------------|
A|-------------------------------------------------|
F|-------------------------------------------------|
C|--7--9--7--7--------2----------------------------|
G|--7--9--7--7--0--0--2----------------------------|
C|--7--9--7--7--0--0--2----------------------------|
                .  .

  GTR I
d|-------------------------------------------------|
A|-------------------------------------------------|
F|-------------------------------------------------|
C|-------------------------------------------------|
G|-------------------------------------------------|
C|-------------------------------------------------|
 |
 |GTR II
d|-------------------------------------------------|
A|-------------------------------------------------|
F|-------------------------------------------------|
C|--7--9-----7--9-----2----------------------------|
G|--7--9--0--7--9--0--2----------------------------|
C|--7--9--0--7--9--0--2----------------------------|
          .        .

  GTR I
d|-------------------------------------------------|
A|-------------------------------------------------|
F|-------------------------------------------------|
C|-------------------------------------------------|
G|-------------------------------------------------|
C|-------------------------------------------------|
 |
 |GTR II
d|-------------------------------------------------|
A|-------------------------------------------------|
F|-------------------------------------------------|
C|--7--9-----7--9-----2----------------------------|
G|--7--9--0--7--9--0--2----------------------------|
C|--7--9--0--7--9--0--2----------------------------|
          .        .

  GTR I
d|-------------------------------------------------|
A|-------------------------------------------------|
F|-------------------------------------------------|
C|-------------------------------------------------|
G|-------------------------------------------------|
C|-------------------------------------------------|
 |
 |GTR II
d|-------------------------------------------------|
A|-------------------------------------------------|
F|-------------------------------------------------|
C|--0--------2--------4-----------------7--7--7--7-|
G|--0--------2--------4-----------------7--7--7--7-|
C|--0--------2--------4-----------------7--7--7--7-|
                    
Chorus

  GTR I,II
d|-------------------------------------------------|
A|-------------------------------------------------|
F|-------------------------------------------------|
C|--7--9--9--9--9--7--0--0--0--0--0--0--0--0--0--0-|
G|--7--9--9--9--9--7--0--0--0--0--0--0--0--0--0--0-|
C|--7--9--9--9--9--7--0--0--0--0--0--0--0--0--0--0-|

  GTR I,II
d|-------------------------------------------------|
A|-------------------------------------------------|
F|-------------------------------------------------|
C|--7--7--7--7--7--7--2--2--2--2--2--2-----0-------|
G|--7--7--7--7--7--7--2--2--2--2--2--2--0--0-------|
C|--7--7--7--7--7--7--2--2--2--2--2--2--0--0-------|
                                        .   

  GTR I,II
d|-------------------------------------------------|
A|-------------------------------------------------|
F|-------------------------------------------------|
C|--7--9--9--9--9--7--0--0--0--0--0--0--0--0--0--0-|
G|--7--9--9--9--9--7--0--0--0--0--0--0--0--0--0--0-|
C|--7--9--9--9--9--7--0--0--0--0--0--0--0--0--0--0-|

  GTR I,II
d|-------------------------------------------------|
A|-------------------------------------------------|
F|-------------------------------------------------|
C|--7--7--7--7--7--7--2--2--2--2--2--2-----0-------|
G|--7--7--7--7--7--7--2--2--2--2--2--2--0--0-------|
C|--7--7--7--7--7--7--2--2--2--2--2--2--0--0-------|
                                        .   

  GTR I,II
d|-------------------------------------------------|
A|-------------------------------------------------|
F|-------------------------------------------------|
C|--7--9--9--9--9--7--0--0--0--0--0--0--0--0--0--0-|
G|--7--9--9--9--9--7--0--0--0--0--0--0--0--0--0--0-|
C|--7--9--9--9--9--7--0--0--0--0--0--0--0--0--0--0-|

  GTR I,II
d|-------------------------------------------------|
A|-------------------------------------------------|
F|-------------------------------------------------|
C|--7--7--7--7--7--7--2--2--2--2--2--2-----0-------|
G|--7--7--7--7--7--7--2--2--2--2--2--2--0--0-------|
C|--7--7--7--7--7--7--2--2--2--2--2--2--0--0-------|
                                        .   

  GTR I,II
d|-------------------------------------------------|
A|-------------------------------------------------|
F|-------------------------------------------------|
C|--7--9--9--9--9--7--0--0--0--0--0--0--0--0--0--0-|
G|--7--9--9--9--9--7--0--0--0--0--0--0--0--0--0--0-|
C|--7--9--9--9--9--7--0--0--0--0--0--0--0--0--0--0-|

  GTR I,II
d|-------------------------------------------------|
A|-------------------------------------------------|
F|-------------------------------------------------|
C|--7--7--7--7--7--7--2--2--2--2--2--2-----0-------|
G|--7--7--7--7--7--7--2--2--2--2--2--2--0--0-------|
C|--7--7--7--7--7--7--2--2--2--2--2--2--0--0-------|
                                        .   

Outro

  GTR I
d|-------------------------------------------------|
A|-------------------------------------------------|
F|-------------------------------------------------|
C|--7--9--9--9--9--7--0--0--0--0--0--0--0--0--0--0-|
G|--7--9--9--9--9--7--0--0--0--0--0--0--0--0--0--0-|
C|--7--9--9--9--9--7--0--0--0--0--0--0--0--0--0--0-|
 |
 |GTR II
d|-----------------------0-------------------------|
A|-----3--------3--------------3--------3--------3-|
F|--------2--------2--------------2--------2-------|
C|--0--------0--------0--------------0--------0----|
G|-------------------------------------------------|
C|-------------------------------------------------|

  GTR I
d|-------------------------------------------------|
A|-------------------------------------------------|
F|-------------------------------------------------|
C|--7--9--9--9--9--7--0--0--0--0--0--0--0-----2----|
G|--7--9--9--9--9--7--0--0--0--0--0--0--0--0--2----|
C|--7--9--9--9--9--7--0--0--0--0--0--0--0--0--2----|
 |                                         .
 |GTR II
d|-----------------------0-------------------------|
A|-----3--------3--------------3--------3--------3-|
F|--------2--------2--------------2--------2-------|
C|--0--------0--------0--------------0--------0----|
G|-------------------------------------------------|
C|-------------------------------------------------|

  GTR I
d|-------------------------------------------------|
A|-------------------------------------------------|
F|-------------------------------------------------|
C|--7--9--9--9--9--7--0--0--0--0--0--0--0--0--0--0-|
G|--7--9--9--9--9--7--0--0--0--0--0--0--0--0--0--0-|
C|--7--9--9--9--9--7--0--0--0--0--0--0--0--0--0--0-|
 |
 |GTR II
d|-----------------------0-------------------------|
A|-----3--------3--------------3--------3--------3-|
F|--------2--------2--------------2--------2-------|
C|--0--------0--------0--------------0--------0----|
G|-------------------------------------------------|
C|-------------------------------------------------|

  GTR I
d|-------------------------------------------------|
A|-------------------------------------------------|
F|-------------------------------------------------|
C|--7--9--9--9--9--7--0--0--0--0--0--0--0-----2----|
G|--7--9--9--9--9--7--0--0--0--0--0--0--0--0--2----|
C|--7--9--9--9--9--7--0--0--0--0--0--0--0--0--2----|
 |                                         .
 |GTR II
d|-----------------------0-------------------------|
A|-----3--------3--------------3--------3--------3-|
F|--------2--------2--------------2--------2-------|
C|--0--------0--------0--------------0--------0----|
G|-------------------------------------------------|
C|-------------------------------------------------|

  GTR I
d|-------------------------------------------------|
A|-------------------------------------------------|
F|-------------------------------------------------|
C|--7--9--9--9--9--7--0--0--0--0--0--0--0--0--0--0-|
G|--7--9--9--9--9--7--0--0--0--0--0--0--0--0--0--0-|
C|--7--9--9--9--9--7--0--0--0--0--0--0--0--0--0--0-|
 |
 |GTR II
d|-----------------------0-------------------------|
A|-----3--------3--------------3--------3--------3-|
F|--------2--------2--------------2--------2-------|
C|--0--------0--------0--------------0--------0----|
G|-------------------------------------------------|
C|-------------------------------------------------|

  GTR I
d|-------------------------------------------------|
A|-------------------------------------------------|
F|-------------------------------------------------|
C|--7--9--9--9--9--7--0--0--0--0--0--0--0-----2----|
G|--7--9--9--9--9--7--0--0--0--0--0--0--0--0--2----|
C|--7--9--9--9--9--7--0--0--0--0--0--0--0--0--2----|
 |                                         .
 |GTR II
d|-----------------------0-------------------------|
A|-----3--------3--------------3--------3--------3-|
F|--------2--------2--------------2--------2-------|
C|--0--------0--------0--------------0--------0----|
G|-------------------------------------------------|
C|-------------------------------------------------|

  GTR I
d|-------------------------------------------------|
A|-------------------------------------------------|
F|-------------------------------------------------|
C|--7--9--9--9--9--7--0--0--0--0--0--0--0--0--0--0-|
G|--7--9--9--9--9--7--0--0--0--0--0--0--0--0--0--0-|
C|--7--9--9--9--9--7--0--0--0--0--0--0--0--0--0--0-|
 |
 |GTR II
d|-----------------------0-------------------------|
A|-----3--------3--------------3--------3--------3-|
F|--------2--------2--------------2--------2-------|
C|--0--------0--------0--------------0--------0----|
G|-------------------------------------------------|
C|-------------------------------------------------|

  GTR I
d|-------------------------------------------------|
A|-------------------------------------------------|
F|-------------------------------------------------|
C|--7--9--7--7--------2----------------------------|
G|--7--9--7--7--0--0--2----------------------------|
C|--7--9--7--7--0--0--2----------------------------|
 |              .  .
 |GTR II
d|-------------------------------------------------|
A|-----3--------3-----2----------------------------|
F|--------2--------2--2----------------------------|
C|--0--------0--------0----------------------------|
G|-------------------------------------------------|
C|-------------------------------------------------|


| b  bend
| r  release bend
|PH. pinch harmonic
|fbk feedback
| .  palm-mute
| /  slide up
| \  slide down
| h  hammer-on
| p  pull-off
| ~  vibrato
| +  harmonic
| x  Mute note
===============================================================================

Добавлено: 20.06.2013
Другие материалы по этой песне:
  • Аккорды и текст

Страница создана 09.05.2012
http://primanota.ru/theory-of-a-deadman/confession-chords.htm
Привет, Гость.
Предлагаем пройти революционный курс по гитаре.
Подарок от PrimaNota.Ru, забирай!