PrimaNota.ru - самый крупный в мире бесплатный архив песенных текстов, аккордов, табулатур и нот


The Subways - Rumour - текст песни, таба, видео

Регистрация Запомнить меня
Войти через:  Facebook Google Twitter Vk Yandex Mail.ru

The Subways - Rumour - текст песни, таба, видео

Печатать
Просмотров: 243
Уроки эстрадного вокала в Санкт-Петербурге
Авторы музыки: The Subways
Авторы текста: Billy Lunn
-------------------------------------------------------------------------------
                             Rumour - The Subways
-------------------------------------------------------------------------------
Tabbed by: Jason Walsh (walshjs01)
Email: walshjs01@hotmail.com

Tuning: Drop C#/Db (the subways always play half step down, they tune down the E string 
for this
song as if they were tuning to drop D, but as they are half a step down this means they 
are in Drop C#/Db)

Find out exact rhythms by listening to the song, the melodies and chords are both correct.

Thanks for choosing my tab! :)

Introduction

eb|---------------------------------------------------------------------------|
Bb|---------------------------------------------------------------------------|
Gb|-11--11--12-12-11-11--11---12-12-11-11--11---12-12-11-11--11---12-11-12-11-|
Db|-0---0---0--0--0--0---0----0--0--0--0---0----0--0--0--0---0----0--0--0--0--|
Ab|---------------------------------------------------------------------------|
C#|---------------------------------------------------------------------------|

eb|---------------------------------------------------------------------------|
Bb|---------------------------------------------------------------------------|
Gb|-11--11--12-12-11-11--11---12-12-11-11--11---12-12-11-11--11---12-11-12-11-|
Db|-0---0---10-10-0--0---0----10-10-0--0---0----10-10-0--0---0----10-0--10--0-|
Ab|-0---0---10-10-0--0---0----10-10-0--0---0----10-10-0--0---0----10-0--10--0-|
C#|-0---0---10-10-0--0---0----10-10-0--0---0----10-10-0--0---0----10-0--10--0-| x2

Verse 1
"Shame on you..."

eb|---------------------------------------------------------------------------|
Bb|---------------------------------------------------------------------------|
Gb|-11--11--12-12-11-11--11---12-12-11-11--11---12-12-11-11--11---12-11-12-11-|
Db|-0---0---0--0--0--0---0----0--0--0--0---0----0--0--0--0---0----0--0--0--0--|
Ab|---------------------------------------------------------------------------|
C#|---------------------------------------------------------------------------| x2

Pre-Chorus
"Guilty voices and the choices..."

eb|----------------------------------------------------------------------|
Bb|----------------------------------------------------------------------|
Gb|----------------------------------------------------------------------|
Db|-3-3---3-3---3-3---3-3----5---5----3-3---3-3---3-3---3-3----5---5-----|
Ab|-3-3---3-3---3-3---3-3----5---5----3-3---3-3---3-3---3-3----5---5-----|
C#|-3-3---3-3---3-3---3-3----5---5----3-3---3-3---3-3---3-3----5---5-----|

Chorus
"Dont need a reason..."               "...With your rumour."

eb|-----------------------------|     |-------------------|
Bb|-----------------------------|     |-------------------|
Gb|-----------------------------|     |-------------------|
Db|-8-8---7-7---0---0-0-0-0---3-|     |--8-8---7-7--------|
Ab|-8-8---7-7---0---0-0-0-0---3-|     |--8-8---7-7--------|
C#|-8-8---7-7---0---0-0-0-0---3-| x3  |--8-8---7-7--------|

Middle-8

eb|---------------------------------------------------------------------------|
Bb|---------------------------------------------------------------------------|
Gb|-11--11--12-12-11-11--11---12-12-11-11--11---12-12-11-11--11---12-11-12-11-|
Db|-0---0---10-10-0--0---0----10-10-0--0---0----10-10-0--0---0----10-0--10--0-|
Ab|-0---0---10-10-0--0---0----10-10-0--0---0----10-10-0--0---0----10-0--10--0-|
C#|-0---0---10-10-0--0---0----10-10-0--0---0----10-10-0--0---0----10-0--10--0-| x2

Verse 2
"People talk aloud..."

eb|---------------------------------------------------------------------------|
Bb|---------------------------------------------------------------------------|
Gb|-11--11--12-12-11-11--11---12-12-11-11--11---12-12-11-11--11---12-11-12-11-|
Db|-0---0---0--0--0--0---0----0--0--0--0---0----0--0--0--0---0----0--0--0--0--|
Ab|---------------------------------------------------------------------------|
C#|---------------------------------------------------------------------------| x2

Pre-Chorus
"Guilty voices and the choices..."

eb|----------------------------------------------------------------------|
Bb|----------------------------------------------------------------------|
Gb|----------------------------------------------------------------------|
Db|-3-3---3-3---3-3---3-3----5---5----3-3---3-3---3-3---3-3----5---5-----|
Ab|-3-3---3-3---3-3---3-3----5---5----3-3---3-3---3-3---3-3----5---5-----|
C#|-3-3---3-3---3-3---3-3----5---5----3-3---3-3---3-3---3-3----5---5-----|

Chorus
"Dont need a reason..."               "...With your rumour."

eb|-----------------------------|     |-------------------|
Bb|-----------------------------|     |-------------------|
Gb|-----------------------------|     |-------------------|
Db|-8-8---7-7---0---0-0-0-0---3-|     |--8-8---7-7--------|
Ab|-8-8---7-7---0---0-0-0-0---3-|     |--8-8---7-7--------|
C#|-8-8---7-7---0---0-0-0-0---3-| x3  |--8-8---7-7--------|

Bridge

eb|-------------------------------------|
Bb|-------------------------------------|
Gb|-------------------------------------|
Db|-0-0-3-0-3-5-0-7-8-0-10-0-10-11-12-0-|
Ab|-0-0-3-0-3-5-0-7-8-0-10-0-10-11-12-0-|
C#|-0-0-3-0-3-5-0-7-8-0-10-0-10-11-12-0-| x4

Pre-Chorus
"Guilty voices and the choices..."

eb|----------------------------------------------------------------------|
Bb|----------------------------------------------------------------------|
Gb|----------------------------------------------------------------------|
Db|-3-3---3-3---3-3---3-3----5---5----3-3---3-3---3-3---3-3----5---5-----|
Ab|-3-3---3-3---3-3---3-3----5---5----3-3---3-3---3-3---3-3----5---5-----|
C#|-3-3---3-3---3-3---3-3----5---5----3-3---3-3---3-3---3-3----5---5-----|

Chorus
"Dont need a reason..."               "...With your rumour."

eb|-----------------------------|     |-------------------|
Bb|-----------------------------|     |-------------------|
Gb|-----------------------------|     |-------------------|
Db|-8-8---7-7---0---0-0-0-0---3-|     |--8-8---7-7--------|
Ab|-8-8---7-7---0---0-0-0-0---3-|     |--8-8---7-7--------|
C#|-8-8---7-7---0---0-0-0-0---3-| x7  |--8-8---7-7--------|

Outro

eb|---------------------------------------------------------------------------|
Bb|---------------------------------------------------------------------------|
Gb|-11--11--12-12-11-11--11---12-12-11-11--11---12-12-11-11--11---12-11-12-11-|
Db|-0---0---10-10-0--0---0----10-10-0--0---0----10-10-0--0---0----10-0--10--0-|
Ab|-0---0---10-10-0--0---0----10-10-0--0---0----10-10-0--0---0----10-0--10--0-|
C#|-0---0---10-10-0--0---0----10-10-0--0---0----10-10-0--0---0----10-0--10--0-| x2
Добавлено: 26.07.2013
Другие материалы по этой песне:
  • Аккорды и текст

Страница создана 26.07.2013
http://primanota.ru/the-subways/rumour-chords.htm
Привет, Гость.
Предлагаем пройти революционный курс по гитаре.
Подарок от PrimaNota.Ru, забирай!