PrimaNota.ru - самый крупный в мире бесплатный архив песенных текстов, аккордов, табулатур и нот


The Subways - Its A Party - текст песни, таба, видео

Регистрация Запомнить меня
Войти через:  Facebook Google Twitter Vk Yandex Mail.ru

The Subways - Its A Party - текст песни, таба, видео

Печатать
Просмотров: 386
Авторы музыки: The Subways
Авторы текста: Billy Lunn
			     It's a party - The Subways

Tabbed by: drunja81
Email: andruxa8@inbox.lv

They definitely play it live in half step down tuning. Im sorry,cause its my first tab 
and its a bit ugly. Also bridge part is wrong.

Tuning:Standart
Intro:
e|----------------|-------------------------------------------------------|
B|----------------|-------------------------------------------------------|
G|----------------|-------------------------------------------------------|
D|----33-3---33-3-|-------3-3---------3---------3-3-------3---------------|
A|----------------|-------------------------------------------------------|
E|----------------|-1-1---------1-1--------1-1-------1-1------------------|

e|-----------------------------------------------------------------------|
B|-----------------------------------------------------------------------|
G|----------------------------------------------------8\-----------------|
D|----------6-6------------6------------8-8------------------------------|
A|----------------------------------------------6-6----------------------|
E|---4-4------------4-4-----------6-6------------------------------------| x2

Verse:
e|---------------------------------|   ------------------------------|
B|----16-16---18-18----16-16---20--|   ------16-16--18----16-16--20--|
G|----15-15---15-15----15-15---15--|   ------15-15--15----15-15--15--|
D|---------------------------------|   ------------------------------|
A|---------------------------------|   ------------------------------|
E|---------------------------------|x1 ------------------------------| x4

e|------------------|
B|---16-16--18--20--|
G|---15-15--15--15--|
D|------------------|
A|------------------|
D|------------------|
A|------------------|
E|------------------| x1

Pre-chorus:
PM-------------------------------------------------------------|
e|-------------------------------------------------------------|
B|-------------------------------------------------------------|
G|--6-6-6-6-6-6--8-8-8-8-8--88888------------------------------|
D|--6-6-6-6-6-6--8-8-8-8-8--88888------------------------------|
A|--4-4-4-4-4-4--6-6-6-6-6--66666------------------------------|
E|-------------------------------------------------------------|

Chorus:
e|---------------------------4-4---------------------------|
B|---------------------------4-4---------------------------|
G|--------------6-66--6-66---6-6----8-88-------------------|
D|-3-33--3-33---6-66--6-66---6-6----8-88-------------------|
A|-3-33--3-33---4-44--4-44----------6-66-------------------|
E|-1-11--1-11----------------------------------------------| x2

Re-intro
Verse
Pre-chorus
Chorus

Bridge:
Im not sure about this part,its not correct. Its more like live version, not record.

e|----------------|    ---------------------------|          |
B|----------------|    ---------------------------|          |
G|----------------|    ---------------------------|          |
D|-333/--15151515-|    -11-11-11/--15-15-15-------|          |
A|-xxx/--xxxxxxxx-|    -x--x--x-/--xx-xx-xx-------|          |
E|-111/--13131313-| x2 -9--9--9-/--13-13-13-------| x2       | x2

Verse like intro part
Pre-chorus x2
Chorus (in the beggining scratch with plectrum)x2
Outro (like intro part)
************************************

| /   slide up
| \   slide down
| h   hammer-on
| p   pull-off
| ~   vibrato
| +   harmonic
| x   Mute note
| b   Bend
| pb  Pre-bend
| br  Bend release
| pbr Pre-bend release
| brb Bend release bend

************************************
Добавлено: 03.07.2013
Другие материалы по этой песне:
  • Аккорды и текст

Страница создана 03.07.2013
http://primanota.ru/the-subways/its-a-party-chords.htm
Привет, Гость.
Предлагаем пройти революционный курс по гитаре.
Подарок от PrimaNota.Ru, забирай!