PrimaNota.ru - самый крупный в мире бесплатный архив песенных текстов, аккордов, табулатур и нот


The Raconteurs - 5 On The 5 - таба, видео

Регистрация Запомнить меня
Войти через:  Facebook Google Twitter Vk Yandex Mail.ru

The Raconteurs - 5 On The 5 - таба, видео

Печатать
Просмотров: 161
Уроки эстрадного вокала в Санкт-Петербурге
-------------------------------------------------------------------------------
			     5 on the 5 - The Raconteurs
-------------------------------------------------------------------------------
Tabbed by:Tom aria
Email:Don't

Tuning:Standard
This is one of my favourite new raconteurs songs so I thought i'd transcribe it. I will
each part (e.g. Part A,B,C etc.) sp that it is easier for both me and you. I'm pretty
this is right but it could be 1% wrong. Enjoy!
PART A
e|------ -----------------------------------------------------------------------|
B|----- ------------------------------------------------------------------------|
G|--------7---6--6--5-----------7---6--6--5-------------------------------------|
D|--------7---6--6--5--3--5-----7---6--6--5--3--5--3--5--X2---------------------|
A|--------5---4--4--3--3--5-----5---4--4--3--3--5--3--5-------------------------|
E|---- -----------------1--3------------------1--3--1--3------------------------|
PART B
e|---- -------------------------------------------------------------------------|
B|---- -------------------------------------------------------------------------|
G|------------------------------------------------------------------------------|
D|-------------------------------------------------------------------X2---------|
A|-----5-5-5-5-4-4-4-4-3-3-3----------5-5-5-5-4-4-4-4-3-3-3---------------------|
E|------ -----------------------1--3---------------------------1-3-1-3----------|
PART C
e|------- ----------------------------------------------------------------------|
B|--- --------------------------------------------------------------------------|
G|------------------------3-3-3-3-3-3-3-3---------------------5-----------------|
D|-----3-3-3-3-3-3-3-3----3-3-3-3-3-3-3-3---5-5-5-5-5-5-5-5---5-----------------|
A|-----3-3-3-3-3-3-3-3----1-1-1-1-1-1-1-1---5-5-5-5-5-5-5-5---3-----------------|
E|--- --1-1-1-1-1-1-1-1----------------------3-3-3-3-3-3-3-3--------------------|
                                            PART D
e|-------------------------- ---------------|---------------------------------|
B|---------------------- -------------------|---------------------------------|
G|---------------------- --3-3-3-3-3-3-3-3--|--7--6-----5---7--6-----5--------|
D|-----3-3-3-3-3-3-3-3-- --3-3-3-3-3-3-3-3--|--7--6--3--5---7--6--3--5--------|
A|-----3-3-3-3-3-3-3-3-- --1-1-1-1-1-1-1-1--|--5--4--3--3---5--4--3--3--------|
E|-----1-1-1-1-1-1-1-1--- ------------------|--------1------------1-----------|

Then it goes like this again:
PART A
PART B
PART C
PART D
Then it goes into the solo (If you could call it that).

e|------------------------------------------------------------------------------|
B|---------11--8--11--12--8--12--13--8--13---------x6---------------------------|
G|------------------------------------------------------------------------------|
D|------------------------------------------------------------------------------|
A|------------------------------------------------------------------------------|
E|----- ------------------------------------------------------------------------|
This is a bass part, but you could play it anyway.
e|---- -------------------------------------------------------------------------|
B|--- --------------------------------------------------------------------------|
G|------------------------------------------------------------------------------|
D|------------------------------------------------------------------------------|
A|------------------------------------------------------------------------------|
E|------7-7-7-7-6-6-6-6-5-5-5-0-2-2-2----X4------------ ------------------------|
The bass continues, but Jack White plays this with lots of effects:
e|---10---9---8---7---------X8--------------------------------------------------|
B|--- --------------------------------------------------------------------------|
G|------------------------------------------------------------------------------|
D|------------------------------------------------------------------------------|
A|------------------------------------------------------------------------------|
E|------------------------------------------------------------------------------|
Then, it goes:
PART C
PART D
PART C
PART D
And then the final bit.
e|---- -------------------------------------------------------------------------|
B|--- --------------------------------------------------------------------------|
G|-----------------3--3---3-----------------5--5--5--5--5--5-----X5-------------|
D|----3--3---3-----3--3---3-----5--5---5----5--5--5--5--5--5--------------------|
A|----3--3---3-----1--1---1-----5--5---5----3--3--3--3--3--3--------------------|
E|----1--1---1--------- ---------3--3---3---------------------------------------|
Finished! if you don't think it sounds right, try listening to the song a bit to get the
right.

| /  slide up
| \  slide down
| h  hammer-on
| p  pull-off
| ~  vibrato
| +  harmonic
| x  Mute note
===============================================================================
Добавлено: 27.10.2013
Другие материалы по этой песне:
  • Аккорды и текст

Страница создана 10.10.2013
http://primanota.ru/the-raconteurs/5-on-the-5-chords.htm
Привет, Гость.
Предлагаем пройти революционный курс по гитаре.
Подарок от PrimaNota.Ru, забирай!